Oops, an error
Loading. Please wait.

Sirena Que Estas Moviendo El Mar tab

23 views 3 this week
no commentswrite comment
1 2 3 4 5
3 more votes to show rating
add to favorites
×
Save as Personal and add changes to this tab that will be seen only by you. Learn more ›
×
You can save this tab as Personal to edit and correct it or add notes. All changes will be seen only by you. Learn more »
launch autoscroll
font size
0
reset
how to read this tab
guitar tuner
edit
Autoscroll
slow
fast
+/-
esc
set tempo
stop
A mi me suena bien así, a ver que os parece...


  Asus2      F#    E         A           D       E
---------------------------------------------------------
------0---------------0---------0---------3--\----5-------
--------2--------2---1------------2------2-2-\---4-4-----
----2-----------4---2---------2---------0----\--0-------
--0------------4------------0----------------------------
-------------2-----0-------------------------------------- 
 Erase una  vez un señor  junto al mar

acoplado en al playa y con ojos de no estar
érase que tenía mil coas que hacer
pero sólo importaba encontrar a esa mujer


 C#m7            Bm7          D       D/C#    D/B      D/A     E7
--4----------4-3-2-----------------------------------------------
--5----------5-4-3----------------3-------3-------3-------3----3-
--4----------4-3-2--------------2---2---2---2---2---2---2---2--1-
--6----------6-5-4------------0--------------------------------2-
--4----------4-3-2--------------------4-------2--------0-------2-
---------------------------------------------------------------0-

  ...Y al ser el rey de la    el hombre enchufó allí bajo el sol
                    estrategia

su ordenador a una almeja mujer vas a ver...

               D7/D#     F7           E 
           ------------------------------------
            ----------7--------------10-----0--
             -------5-5------------8-8------1--
            ------7---7----------10--10-----2--
          ------6-----6--------8-----8------2--
        ------------------------------------0--
...tu cola de pez      Me saldrá


 Amaj7         Dmaj7              E       E7    F#m    E     D    D/C#    D/B    D/A   D/G#
-----------------2--------------------------------------------------------------------------------
-2---------------2----------------0-------3------2-----0-----3-----3------3-------3-----3-----(2)-
-1---------------2----------------1-------1------2-----1-----2-----2------2-------2-----2-----(1)-
-2---------------0----------------2-------0------4-----2-----0------------0-------------------(2)-
-0--------------------------------2-------2------4-----2-----------4------2-------0-----------(0)-
----------------------------------0-----------------------------------------------------4---------
Ten   -  go     tus coordenadas   Te vi en un cartel  atún dl mar ms azul y supe entender


Pasaron los años y nada ocurrió
las teclas buscaban y salía sólo error
las olas llenaron su ordenador
de algas y esponjas y en acuario se convirtió

El hombre sabía que su presa
estuvo una vez tan cerca de él
que le rozó casi las cejas
pero este señor no tuvo valor de mirar
más allá de su ordenador

Tengo tus coordenadas
te vi en un cartel vendiéndome atún
del mar más azul
y supe entender
caricia de las alas
con ansia de hogar
esa es la señal
sirena que estás moviendo el mar


- cpm : cpmweb@

            
            
Suggest correction
Creating personal tab
Creating personal tab
You can edit any tab online and save it as your Personal.

You can edit, replace or remove any tab part or add personal notes – all changes will be seen only by you.

Personal tabs can be accessed anytime from any device, even offline.
Learn more »
Give kudos to tab author, rate the tab!
1 2 3 4 5
comments
print report bad tab
guest
Wanna post a correction for this tab? Suggest correction