Oops, an error
Loading. Please wait.

Amego bass

version 1
version 1

Whole song

Interactive

by Pagoda
630 views 1 this week
no commentswrite comment
1 2 3 4 5
3 more votes to show rating
add to favorites
×
Save as Personal and add changes to this tab that will be seen only by you. Learn more ›
×
You can save this tab as Personal to edit and correct it or add notes. All changes will be seen only by you. Learn more »
launch autoscroll
font size
0
reset
guitar tuner
edit
Autoscroll
slow
fast
+/-
esc
set tempo
stop
Author
Difficulty
Bass tab for Amego by Pagoda
From self titled album 'Pagoda'(2007)
Tabbed by Hayden(HaydeN64)29 Nov 2012. 
Standard tuning

Key
h = hammer on
p = pull off
b = bend
/ = slide up
\ = Slide down

Intro & Verse

G|---------------------------------5-5-5-5-4-------------------------------------------|
D|-2--2--2--2--5--5--5--5--4--4--4-----------5--2--2--2--2--5--5--5--5--4--4--4--0--3--|
A|-------------------------------------------------------------------------------------|
E|-------------------------------------------------------------------------------------|

Chorus

G|-------------------------------------------------|
D|-------------------------------------------------|
A|-------------------------------------------------|
E|-0--0--0--0--3--3--3--3--2--2--2--2--1--1--1--1--|

Bridge

G|--------------------|     |------------4h5p4----| 
D|-2--5--4-4-3h4p3----|     |-2--5--4--4----------| 
A|--------------------|     |---------------------| 
E|--------------------| x3  |---------------------| x1

Second Verse

G|-------------------------------------------------------------------------------------|
D|-------------------------------------------------------------------------------------|
A|---------------------------------3-3-3-3-2-------------------------------------------|
E|-0--0--0--0--3--3--3--3--2--2--2-----------3--0--0--0--0--3--3--3--3--2--2--2--0--1--|

Second Bridge

G|--------------|     |---------4/5---------| 
D|-2--5b--4-----|     |-2--5----------------| 
A|--------------|     |---------------------| 
E|--------------| x3  |---------------------| x1

Order:

Intro/Verse x 6
Chorus x 4
Bridge*
Second Verse x 6
Chorus x 4
Bridge*
Second Bridge*
Chorus x 8
End on open E.

---------------------------------------------------------------------------
Notes:
---------------------------------------------------------------------------

This to my ear is correct, If there's any questions post a comment. 
There's no solid bass tabs for it out there, so i had to make this.
In the bridge, you can slide back and forth rather than hammer on etc
Practically the same thing though a little softer. 
PAGODA YEAH!! 

            
            
Suggest correction
Creating personal tab
Creating personal tab
You can edit any tab online and save it as your Personal.

You can edit, replace or remove any tab part or add personal notes – all changes will be seen only by you.

Personal tabs can be accessed anytime from any device, even offline.
Learn more »
Give kudos to tab author, rate the tab!
1 2 3 4 5
comments
print report bad tab
guest
You may want to rate the tab now too:
select rating
Wanna post a correction for this tab? Suggest correction