Oops, an error
Loading. Please wait.

Curuzu Vera tab

by Paiko
44 views 1 this week
no commentswrite comment
1 2 3 4 5
3 more votes to show rating
add to favorites
×
Save as Personal and add changes to this tab that will be seen only by you. Learn more ›
×
You can save this tab as Personal to edit and correct it or add notes. All changes will be seen only by you. Learn more »
launch autoscroll
font size
0
reset
how to read this tab
guitar tuner
edit
Autoscroll
slow
fast
+/-
esc
set tempo
stop
Me llamo Juan Guerra y saco música siempre. Me encanta la música.
Escríbanme si precisan algo y yo veo si lo se o si puedo sacarlo.
Si alguien cree que hay algo mal en la canción, corríjanme.
Mi e-mail es: phantomgue@
Esta canción figura dos veces en ATAME pero noté que las dos tablaturas están mal.
Aprovecho para mandar la corrección y el además adjunto los solos
y arreglos que tiene la canción.

Acordes Usados
   Em  F#  B7 B7(OTRO) C    Am  E  G#m F#m E7  A  B  D7  G
E---0---2--X---7-------X----X---0---4---2---0--X--7--X---3------------
A---2---4--2---9-------3----0---2---6---4---2--0--9--X---2------------
D---2---4--1---7-------2----2---2---6---4---0--2--9--0---0------------
B---0---3--2---8-------0----2---1---4---2---1--2--8--2---0------------
G---0---2--0---7-------1----1---0---4---2---0--2--7--1---2-----------
e---0---2--2---7-------0----0---0---4---2---0--0--7--2---2------------

Introducción
    Em
E------0----------------------
A-----2-----------------------
D----2-------2/4--------------
B---0---------------0---------
G--0-------------------0------
e-0---------------------------

         F#     B7     Em
Kurusu Vera, de mi fervor
G---3--2--1---0--
e----------------
               D       D7         G
Expresión de amor, sin ti no hay luz 
B---5---4--
G---5---3--
e---5---3--
               B7      
Pues tienes fulgores divinos,
               Em
que orientan seguros destinos
          C  Am                B7
Kurusu Vera,    de mi gran pasión

Tienes la humildad de una oración
Eres caridad, eres perdón.
Y dejas en el peregrino,
afanes de andar el camino
          C       B           E
Kurusu Vera, sin ti no hay amor

Golpear al acorde E varias veces antes de cambiar

             E                 G#m                F#m
Vida sin destino tiene el peregrino sin un gran amor
                           B               E
Vida desolada sin una alborada llena de dolor
                                E7               A   Am
Pero tú le diste al que estuvo triste, Kurusu Vera
            E                 F#m      B
Esa luz radiosa, siempre venturosa de la caridad

Golpear al acorde E varias veces antes de cambiar

Solo de Guitarra
A-2-----
D---2-----------4-5--------------------------------------
B-----0-4-3-0-2-----9-12---------------------------------
G------------------------12------10-13-13-12-10-12-12-12-
e---------------------------12-10------------------------

D----------------------------------------------------------------
B-------------------12-11-12-11-9-9-12----------12----------12-9-
G-------12-10-12-10--------------------10-12-10----10-12-10------
e-12-10----------------------------------------------------------

D------------------------------------------------9-7-9----------------
B-9-12------------------------12-11-12-11-9-7-9-7-----7-9-12----------
G-----10-12--------12-10-12-10------------------------------10-12-10--
e----------10-12-10---------------------------------------------------

D---------------------------------------------------------------------
B-12-11-10-9-12-----------12--------------12--------------12-11/12/11-
G--------------10-12-12-10--12/13/12-12-10--12/13/12-12-10------------
e---------------------------------------------------------------------
                       
                F#    B7    Em
Tienes la humildad de una oración
G---3--2--1---0--
e----------------
          D   D7      G    (Am-G)
Eres caridad, eres perdón.
           B7
Y dejas en el peregrino,
            Em
afanes de andar el camino
          C Am  B
Kurusu Veraaaaaaa.

E-------3-2-0-------------------
A-2-3-2-------2-----------------
D---------------2---------------
B-----------------0-------------
G-------------------0---8-------
e---------------------0---7/12-

Hernandarias, 11 de septiembre de 2001.
AGUANTE EL ROCK PARAGUAYO!!

            
            
Suggest correction
Creating personal tab
Creating personal tab
You can edit any tab online and save it as your Personal.

You can edit, replace or remove any tab part or add personal notes – all changes will be seen only by you.

Personal tabs can be accessed anytime from any device, even offline.
Learn more »
Give kudos to tab author, rate the tab!
1 2 3 4 5
comments
print report bad tab
guest
Wanna post a correction for this tab? Suggest correction