Oops, an error
Loading. Please wait.

Pirareta tab

by Paiko
39 views 1 this week
no commentswrite comment
1 2 3 4 5
3 more votes to show rating
add to favorites
×
Save as Personal and add changes to this tab that will be seen only by you. Learn more ›
×
You can save this tab as Personal to edit and correct it or add notes. All changes will be seen only by you. Learn more »
launch autoscroll
font size
0
reset
how to read this tab
guitar tuner
edit
Autoscroll
slow
fast
+/-
esc
set tempo
stop
Me llamo Juan Guerra y saco música siempre.
Me encanta la música. Escríbanme si precisan algo y yo veo 
si lo se o si puedo sacarlo.
Si alguien cree que hay algo mal en la canción,corríjanme.
Mi e-mail es: phantomgue@

Acordes usados:
    Amaj7 Amaj7/F#  A  E  A5  F#m  G#m  Bsus2  A (para el coro)
E-----X------X------X--0--X----2----4-----X----5-----------
A-----0------0------0--2--0----4----5-----X----7-----------
D-----2------2------2--2--2----4----5-----2----7-----------
G-----1------1------2--1--2----2----4-----2----6-----------
B-----2------2------2--0--0----2----4-----4----5-----------
e-----0------2------0--0--0----2----4-----4----5-----------

Introducción y versos: A - Amaj7 - Amaj7 - Amaj7/F# - A - E (A5-E)
Así se toca:
E---X--X--X--X--X--0--X--X--0--0-
A---0--0--0--0--0--2--0--0--2--2-
D---2--2--2--2--2--2--2--2--2--2-
G---1--1--1--1--2--1--2--2--1--1-
B---2--2--2--2--2--0--0--0--0--0-
e---0--0--2--0--0--0--0--0--0--0-

Aires sabor a campo
llenan mi mente
de canción

Cielos cerca de uno
cuando la noche
llama al sol
A5 (golpea el acorde varias veces para cambiar)

F#m      E
Visten con piedras su sabor
F#m      E
Dejan que olvides el calor
F#m      A
Monotonías de ciudad
      Bsus2  A      Bsus2
...tan distantes... tan frustrantes
A      G#m
Tomo sorbos nuevos
Bsus2          A             Bsus2
de esta habitación sin puertas

E----------------------0---
A----2---4---2----2--------
D--------------------------

Aguas tórridas corren
casi tan frías
como vos
Y la arena blanca
rompe la brecha
verde - azul

Visten con piedras su sabor
Dejan que olvides el calor
Monotonías de ciudad
...tan distantes... tan frustrantes
Tomo sorbos nuevos
de esta habitación sin puertas.

E----7---9---7----7-0-
A---------------------

Arreglo rasgueado antes del solo: E-A5-E-A5-E

Solo de Guitarra
    A      E        F#m E A            E        F#m  E
D----------9--------------------------------9--------------
G--------9---6-7-8-9---9-------------------9-6-9-9---9-----
B---9-7--------------7----7-9-10-11----9-7---------7-------
e-7----------------------------------7---------------------

  A          E   F#m    E  A          E           A5 F#m E
D--------------------------------------------9-11----------
G---------------------9-9-------------------------9-9-11-9-
B-----------9-9----9-7-7--------14-12-9-12-9---------------
e-9-7-14-12--7--9-7-------14-12----------------------------

Visten con piedras?

Solo de Harmónica
A   E   F#m    E   A     E   F#m  E
A-A-G#-E-F#-F#-E-B-C#-C#-B-G#-B-B-B
A        E  F#m       E   A        E   A5 F#m   E
E - F# - E - E - F# - E - E - F# - E - B - F# - E


¡¡AGUANTE EL ROCK PARAGUAYO!!
Hernandarias, Paraguay; 11 de septiembre de 2001

            
            
Suggest correction
Creating personal tab
Creating personal tab
You can edit any tab online and save it as your Personal.

You can edit, replace or remove any tab part or add personal notes – all changes will be seen only by you.

Personal tabs can be accessed anytime from any device, even offline.
Learn more »
Give kudos to tab author, rate the tab!
1 2 3 4 5
comments
print report bad tab
guest
Wanna post a correction for this tab? Suggest correction