Oops, an error
Loading. Please wait.

The Taming Of A Beast tab

196 views 3 this week
no commentswrite comment
1 2 3 4 5
2 more votes to show rating
add to favorites
×
Save as Personal and add changes to this tab that will be seen only by you. Learn more ›
×
You can save this tab as Personal to edit and correct it or add notes. All changes will be seen only by you. Learn more »
launch autoscroll
font size
0
reset
how to read this tab
guitar tuner
edit
Autoscroll
slow
fast
+/-
esc
set tempo
stop
Pain of Salvation - The Taming Of A Beast
-----------------------------------------

From the 2017 album "In The Passing Light Of Day"
Words and music by Daniel Gildenlow and Ragnar Zolberg

Transcribed by Travis Lausch

[Notes]

Nothing really difficult about the song at all. Take note of the rhythms in the instrumental
section/last chorus, though. I don't normally put bar lines in my tab staves, but I have here,
along with the time signature shifts, to make it all kind of make sense.

As always, here's a video of me playing it:

https://youtu.be/90PghVVvQSI

[Tuning]

Tune all guitars to drop-A tuning:
(low to high) A E A D G B e

[Intro]
  w/"broken amp" fuzz effect
                      x12
e|----------------------|
B|----------------------|
G|--8b9-6----8b9-6~~~---|
D|----------------------|
A|----------------------|
E|----------------------|
A|----------------------|

[Verse]
  clean w/tremolo effect              x4
e|-------------------------------------|
B|-------------------------------------|
G|-------------------------------------|
D|-------------------------------------|
A|--4-------6-------7-------9----11----|
E|-------------------------------------|
A|--4-------6-------7-------9----11----|

                   x15
e|-------------------|
B|--5-------5--------|
G|----8-------8b9----|
D|-------------------|
A|-------------------|
E|-------------------|
A|-------------------|
(slow bend, let ring throughout)

[Chorus]
   w/heavy distortion
e|----------------------------------------------|
B|----------------------------------------------|
G|----------------------------------------------|
D|----------------------------------------------|
A|--4----7---1--------0---4----7---1---0--------|
E|--4----7---1--------0---4----7---1---0--------|
A|--4----7---1--------0---4----7---1---0--------|

e|------------------------------------------------------------|
B|------------------------------------------------------------|
G|------------------------------------------------------------|
D|-----------------------------3--3--3-3-3-3-4-4-4-4-5-5-5-5--|
A|--4--4-4-4-4-6-7--7--7-7-7-7-1--1--1-1-1-1-2-2-2-2-3-3-3-3--|
E|--2--2-2-2-2-4-5--5--5-5-5-5-1--1--1-1-1-1-2-2-2-2-3-3-3-3--|
A|-----------------------------1--1--1-1-1-1-2-2-2-2-3-3-3-3--|

      P.M.----------------------------------------|
e|------------------------------------------------------------|
B|------------------------------------------------------------|
G|------------------------------------------------------------|
D|------------------------------------------------------------|
A|--4-4-4-4-4-4-4-4-6-6-6-6-6-6-6-6-7-7-7-7-7-7-7-7-9\--------|
E|--4-4-4-4-4-4-4-4-6-6-6-6-6-6-6-6-7-7-7-7-7-7-7-7-9\--------|
A|--4-4-4-4-4-4-4-4-6-6-6-6-6-6-6-6-7-7-7-7-7-7-7-7-9\--------|

[Post-chorus]
  w/"broken amp" fuzz effect
                       x8
e|----------------------|
B|----------------------|
G|--8b9-6----8b9-6~~~---|
D|----------------------|
A|----------------------|
E|----------------------|
A|----------------------|

[Verse]
  clean w/tremolo effect              x4
e|-------------------------------------|
B|-------------------------------------|
G|-------------------------------------|
D|-------------------------------------|
A|--4-------6-------7-------9----11----|
E|-------------------------------------|
A|--4-------6-------7-------9----11----|

                   x15
e|-------------------|
B|--5-------5--------|
G|----8-------8b9----|
D|-------------------|
A|-------------------|
E|-------------------|
A|-------------------|
(slow bend, let ring throughout)

[Chorus]
   w/heavy distortion
e|----------------------------------------------|
B|----------------------------------------------|
G|----------------------------------------------|
D|----------------------------------------------|
A|--4----7---1--------0---4----7---1---0--------|
E|--4----7---1--------0---4----7---1---0--------|
A|--4----7---1--------0---4----7---1---0--------|

e|------------------------------------------------------------|
B|------------------------------------------------------------|
G|------------------------------------------------------------|
D|-----------------------------3--3--3-3-3-3-4-4-4-4-5-5-5-5--|
A|--4--4-4-4-4-6-7--7--7-7-7-7-1--1--1-1-1-1-2-2-2-2-3-3-3-3--|
E|--2--2-2-2-2-4-5--5--5-5-5-5-1--1--1-1-1-1-2-2-2-2-3-3-3-3--|
A|-----------------------------1--1--1-1-1-1-2-2-2-2-3-3-3-3--|

      P.M.----------------------------------------|
e|------------------------------------------------------------|
B|------------------------------------------------------------|
G|------------------------------------------------------------|
D|------------------------------------------------------------|
A|--4-4-4-4-4-4-4-4-6-6-6-6-6-6-6-6-7-7-7-7-7-7-7-7-9\--------|
E|--4-4-4-4-4-4-4-4-6-6-6-6-6-6-6-6-7-7-7-7-7-7-7-7-9\--------|
A|--4-4-4-4-4-4-4-4-6-6-6-6-6-6-6-6-7-7-7-7-7-7-7-7-9\--------|

[Bridge]
   clean            x8
e|-------------------|
B|--5-------5--------|
G|----8-------8b9----|
D|-------------------|
A|-------------------|
E|-------------------|
A|-------------------|

[Instrumental part]
   w/heavy distortion                                                                                 x2
  4/4                                                                                        2/4
e|---------------|-------------|------------|---------------|----------|------------|-------|----------|
B|---------------|-------------|------------|---------------|----------|------------|-------|----------|
G|---------------|-------------|------------|---------------|----------|------------|-------|----------|
D|---------------|-------------|------------|---------------|----------|------------|-------|----------|
A|--x-4-4---4----|-x-6-6-------|-7-7-7------|-x-9-9--11---4-|-4-4------|-6-6----6-6-|-7-----|-9-9-9----|
E|--x-4-4---4----|-x-6-6-------|-7-7-7------|-x-9-9--11---4-|-4-4------|-6-6----6-6-|-7-----|-9-9-9----|
A|--x-4-4---4----|-x-6-6-------|-7-7-7------|-x-9-9--11---4-|-4-4------|-6-6----6-6-|-7-----|-9-9-9----|

  4/4
e|---------------|-----------|------------|---------------|----------|------------|-------|------------------|
B|---------------|-----------|------------|---------------|----------|------------|-------|------------------|
G|---------------|-----------|------------|---------------|----------|------------|-------|------------------|
D|---------------|-----------|------------|---------------|----------|------------|-------|------------------|
A|--x-4-4---4----|-x-6-6-----|-7-7-7------|-x-9-9--11---4-|-4-4------|-6-6----6-6-|-7-----|-9-9-9--11-11-11--|
E|--x-4-4---4----|-x-6-6-----|-7-7-7------|-x-9-9--11---4-|-4-4------|-6-6----6-6-|-7-----|-9-9-9--11-11-11--|
A|--x-4-4---4----|-x-6-6-----|-7-7-7------|-x-9-9--11---4-|-4-4------|-6-6----6-6-|-7-----|-9-9-9--11-11-11--|


[Last chorus]

e|---------------|-----------|------------|---------------|----------|------------|-------|------------------|
B|---------------|-----------|------------|---------------|----------|------------|-------|------------------|
G|---------------|-----------|------------|---------------|----------|------------|-------|------------------|
D|---------------|-----------|------------|---------------|----------|------------|-------|------------------|
A|--x-4-4---4----|-x-6-6-----|-7-7-7------|-x-9-9--11---4-|-4-4------|-6-6----6-6-|-7-----|-9-9-9--11-11-11--|
E|--x-4-4---4----|-x-6-6-----|-7-7-7------|-x-9-9--11---4-|-4-4------|-6-6----6-6-|-7-----|-9-9-9--11-11-11--|
A|--x-4-4---4----|-x-6-6-----|-7-7-7------|-x-9-9--11---4-|-4-4------|-6-6----6-6-|-7-----|-9-9-9--11-11-11--|

e|---------------|-------------|------------|---------------|----------|------------|-------|----------|
B|---------------|-------------|------------|---------------|----------|------------|-------|----------|
G|---------------|-------------|------------|---------------|----------|------------|-------|----------|
D|---------------|-------------|------------|-------------4-|-4-4------|-6-6----6-6-|-7-----|-5-5-5----|
A|--x-0-0---0----|-x-2-2-------|-4-4-4------|-x-6-6--7----4-|-4-4------|-6-6----6-6-|-7-----|-4-4-4----|
E|--x-0-0---0----|-x-2-2-------|-4-4-4------|-x-6-6--7----2-|-2-2------|-4-4----4-4-|-5-----|-3-3-3----|
A|--x-0-0---0----|-x-2-2-------|-4-4-4------|-x-6-6--7------|----------|------------|-------|----------|

[Outro]
   clean            x4
e|-------------------|
B|--5-------5--------|
G|----8-------8b9----|
D|-------------------|
A|-------------------|
E|-------------------|
A|-------------------|
Let last notes ring out and "wobble" in dissonance a bit.


[Legend]

8b9    = bend 8th fret note to pitch of 9th fret note
~~~    = vibrato
P.M.   = palm mute
x      = muted note

            
            
Suggest correction
Creating personal tab
Creating personal tab
You can edit any tab online and save it as your Personal.

You can edit, replace or remove any tab part or add personal notes – all changes will be seen only by you.

Personal tabs can be accessed anytime from any device, even offline.
Learn more »
Give kudos to tab author, rate the tab!
1 2 3 4 5
comments
print report bad tab
guest
You may want to rate the tab now too:
select rating
Wanna post a correction for this tab? Suggest correction