Oops, an error
Loading. Please wait.

De Regreso Al Penal tab

80 views 1 this week
no commentswrite comment
1 2 3 4 5
3 more votes to show rating
add to favorites
×
Save as Personal and add changes to this tab that will be seen only by you. Learn more ›
×
You can save this tab as Personal to edit and correct it or add notes. All changes will be seen only by you. Learn more »
launch autoscroll
font size
0
reset
how to read this tab
guitar tuner
edit
Autoscroll
slow
fast
+/-
esc
set tempo
stop
Bueno les dejo esta cancion
que esta muy piola
espero que les guste

Intro

         LAm
e|-5--3-3--5-3-3-5-3-1-3-5-
B|-------------------------
G|-------------------------
D|-------------------------
A|-------------------------
E|-------------------------

            FA
e|-3-3-5-3-1-8-7-5-
B|-----------------
G|-----------------
D|-----------------
A|-----------------
E|-----------------

         LAm
e|-5--3-3--5-3-3-5-3-1-3-5-
B|-------------------------
G|-------------------------
D|-------------------------
A|-------------------------
E|-------------------------

           FA    LAm
e|-3-3-5-3-1-8-7-5/12-12-10-12-10-9-10-9-7-5-
B|-------------------------------------------
G|-------------------------------------------
D|-------------------------------------------
A|-------------------------------------------
E|-------------------------------------------


LAm
Abrió la celda

su vista adelante
            FA
vio su libertad
      SOL
lo que anhelaba

lo que mas quería
                LAm
era estar en su hogar


LAm
Dejo la viola

dentro de su celda
              FA
ya no quería tocar
     SOL
solo quería llegar a su casa
           LAm
no aguantaba mas

LAm
Se subió a un bondi

que paro en la esquina
           FA
cerca del penal
       SOL
y suplicando

el boleto el chofer
         LAm
le dijo pasa

LAm     FA
Y se sentó
         SOL
y le aprecio
      DO   LAm
que volaaaaba
          FA
y cuando llego
             SOL
que nunca penso
           LAm
no lo imaginaba
                  FA
que se iba a encontrar
              SOL
con su amigo y su amor
             LAm
dentro de su cama


Intro


Mato a su esposa
a su amigo del alma
y se puso a llorar
y caminando
todo ensangrentado
regreso al penal


Abrió la celda
y entro cabizbajo
el no quiso hablar
de lo ocurrido,
de lo sucedido,
con los del penal


Prendió un cigarro,
tomo su guitarra
y se puso a cantar
"yo la quería con toda mi vida,
y ahora ya no esta"


Y se sentó
y le pareció
que volaba
y cuando llego
el nunca pensó
no lo imaginaba

Y los mato
y no les pregunto
por que lo engañaban
y se entrego
muy solo quedo
ya no tenia nada

Y se sentó
y le pareció
que volaba
y cuando llego
el nunca pensó
no lo imaginaba
que se iba a encontrar
con su amigo y su amor
dentro de su cama


cualquier cosa me escriben
a mi correo
rodri_290888@

 -R*dr!g*-

            
            
Suggest correction
Creating personal tab
Creating personal tab
You can edit any tab online and save it as your Personal.

You can edit, replace or remove any tab part or add personal notes – all changes will be seen only by you.

Personal tabs can be accessed anytime from any device, even offline.
Learn more »
Give kudos to tab author, rate the tab!
1 2 3 4 5
comments
print report bad tab
guest
Wanna post a correction for this tab? Suggest correction