Oops, an error
Loading. Please wait.

14 chords

3,688 views 1 this week
5 commentsread comments
1 2 3 4 5
x 4
add to favorites
×
Save as Personal and add changes to this tab that will be seen only by you. Learn more ›
×
You can save this tab as Personal to edit and correct it or add notes. All changes will be seen only by you. Learn more »
launch autoscroll
font size
0
reset
transpose
0
reset
simplify chords
display chords
guitar tuner
edit
Autoscroll
slow
fast
+/-
esc
set tempo
stop
Author
Strumming
There is no strumming pattern for this song yet. and get +5 IQ
Main riff
e-----------------------------------------------------------|
B--------888--------888-------------------------------------|
G----45-------455-------------------------------------------|
D-----------------------------------------------------------|
A-----------------------------------------------------------|
E-----------------------------------------------------------|

Second riff
e-----------------------------------------------------------|
B-----------------------------------------------------------|
G-------55-5-7-5-0-0-2-2------------------------------------|
D-----------------------------------------------------------|
A-----------------------------------------------------------|
E-----------------------------------------------------------|

C5            G5
Oh fourteen all fourteen
F5
Take me home through the night
C5            G5
All fourteen all fourteen
F5
Take me home through the night
C5            G5
All fourteen oh fourteen
F5
Take me home through the night
C5            G5
All fourteen all fourteen
F5
Take me home through the night

C5            G5
All fourteen all fourteen
F5
Take me home 
C5            G5
All fourteen all fourteen
F5
Take me home
C5            G5
All fourteen all fourteen
F5
Take me home

    C5           G5
All all fourteen all fourteen 
F5
Take me home
    C5           G5
All all fourteen all fourteen 
F5
Take me home
    C5           G5
All all fourteen all fourteen 
F5
Take me home
    C5           G5
All all fourteen all fourteen 
F5
Take me home

C5            G5
All fourteen all fourteen
F5
Take me home through the night
C5            G5
All fourteen all fourteen
F5
Take me home

Yeah I know it sounds like "oh fourteen" but most of the lyrics website says its 
all, just play it and say whatever you want.

            
            
Suggest correction
Creating personal tab
Creating personal tab
You can edit any tab online and save it as your Personal.

You can edit, replace or remove any tab part or add personal notes – all changes will be seen only by you.

Personal tabs can be accessed anytime from any device, even offline.
Learn more »
comments
print report bad tab
5 comments total. Showing first comments.
+1 reply
hiya77 563 Mar 26, 2013 12:26 PM

intro is
e-----------------------------------------------
B-0-1-1/-11-11-11-------------------------------
Basically slide from 1 to 11

+1 reply
smallhd 10 Mar 27, 2013 03:52 AM

and its Oh 14 take me home

+5 reply
hiya77 563 Mar 27, 2013 09:47 AM

OH!! 14
and i corrected wrong it's
e-----------------------------------------------
B-0-1-1/-13-13-13-------------------------------
Basically slide from 1 to 13

guest
You may want to rate the tab now too:
select rating
Wanna post a correction for this tab? Suggest correction