Oops, an error
Loading. Please wait.

Peter And The Gun chords

250 views 1 this week
no commentswrite comment
1 2 3 4 5
2 more votes to show rating
add to favorites
×
Save as Personal and add changes to this tab that will be seen only by you. Learn more ›
×
You can save this tab as Personal to edit and correct it or add notes. All changes will be seen only by you. Learn more »
launch autoscroll
font size
0
reset
transpose
0
reset
display chords
guitar tuner
edit
Autoscroll
slow
fast
+/-
esc
set tempo
stop
Author
Difficulty
Strumming
There is no strumming pattern for this song yet. and get +5 IQ
Keyboard intro: Bm G Bm D Bm       D Bm
e----------------------------------------------------------
B----------------------------------------------------------
G---7--11--7--11--7--11--7--11-----7-----7-----7-----7-----
D-------------------------------9-----9-----9-----9-------- X2
A----------------------------------------------------------
E----------------------------------------------------------

This part will overlap on second time of keyboard intro (if using two guitars)

e-/7-7-7-7-7-----------------------------------------------
B----------------------------------------------------------
G-------------------------7-----7-----7-----7--------------
D-----------7--7--8--9-----9-----9-----9-----9--7--7--8--9-
A----------------------------------------------------------
E----------------------------------------------------------

Guitar: F C F C x2
e----------------------------------------------------------
B----------------------------------------------------------
G----------------------------------------------------------
D--7--7--6--6--5--5--4--4--3--3--3--3--3--2--2--2----------  X2
A----------------------------------------------------------
E----------------------------------------------------------


A     C     G             A
Peter Peter Peter and the gun
A     C     G             A
Peter Peter Peter and the gun
A     C     G             A
Peter Peter Peter and the gun
A     C     Em            A
Peter Peter Peter and the gun

A                                                    C G
In olden days you spent your lives biding by the book
A
You sent for me with a song on your mind,
A          G     A
Dustin the idiot choir boy
    C                    Em
You said to me dear Father
C            Em
Son and Holy Ghost
           A
Kissed the cross on your chest

and looked to the sky
   A          G     A
Oh Dustin the idiot choir boy
A          G     A     
Dustin the idiot choir

Chords: A G F Em A G F D 
e--------------------------------------------------------------------------
B--------------------------------------------------------------------------
G--------------------------------------------------------------------------
D--------------------------------------------------------------------------
A--------------------------------------------------------------------------
E---5-5-4-4-3-3-2-2-1-1-1-1-1-0-0-0--5-5-4-4-3-3-2-2-1-1-1-1-1-3-3-3-------

                            OR

e--------------------------------------------------------------------------
B--------------------------------------------------------------------------
G--------------------------------------------------------------------------
D--7-7-6-6-5-5-4-4-3-3-3-3-3-2-2-2--7-7-6-6-5-5-4-4-3-3-3-3-3-5-5-5--------
A--------------------------------------------------------------------------
E--------------------------------------------------------------------------

D                      Bm
I was searching for my house on the internet
D           Bm
I was taken into the night
D                     Bm
He's somewhere in the hills
D                   Bm
Or somewhere in the house

A     C     G             A
Peter Peter Peter and the gun
A     C     G             A
Peter Peter Peter and the gun
A     C     G             A    A C G A
Peter Peter Peter and the gun

A
In five years time we'll think back
                 D
We'll remember him
A
Blood runs cold,

our hearts will strain
A      G         A
Riding round the bends
A          G
Dustin the idiot 
A          G
Dustin the idiot
A          G     A
Dustin the idiot choir

D                      Bm
I was searching for my house on the internet
D           Bm
I was taken into the night
D                     Bm
He's somewhere in the hills
D                   Bm
Or somewhere in the house
D         Bm
Go out in greater numbers
D            Bm
I think he's got a knife
D                     D
He's somewhere in the hills
D                   G    A 
Or somewhere in the house
D        Bm
Hey Lord don't ask me questions
D            Bm
I think he's got a knife
D                Bm
Somewhere in the hills
F#m                 A
He's all around the world

Solo:
e----------------------------------------------------------------
B---------------------------------------------------------------
G------7--7--11--11--7--7--11--11--7--7--11--11--7--7--11--11--   X2
D------------------------------------------------------------
A----------------------------------------------------------
E--------------------------------------------------------

Bm D F#m A Bm 
La la la la la x4

(Riff)
e---------5-7-5------------
B---------------7-5-------
G-------------------6--7-   X4
D-----------------------
A----------------------
E---------------------

Bm    D     F#m              A
Peter Peter Peter and the gun
Bm    D     F#m              A
Peter Peter Peter and the gun
Bm    D     F#m              A
Peter Peter Peter and the gun
Bm    D     F#m              A
Peter Peter Peter and the gun

Bm D F#m A Bm
La la la la la x4

(Riff)
e---------5-7-5------------
B---------------7-5-------
G-------------------7--6-    X4
D-----------------------
A----------------------
E---------------------

End on Bm

            
            
Suggest correction
Creating personal tab
Creating personal tab
You can edit any tab online and save it as your Personal.

You can edit, replace or remove any tab part or add personal notes – all changes will be seen only by you.

Personal tabs can be accessed anytime from any device, even offline.
Learn more »
Give kudos to tab author, rate the tab!
1 2 3 4 5
comments
print report bad tab
guest
You may want to rate the tab now too:
select rating
Wanna post a correction for this tab? Suggest correction