Oops, an error
Loading. Please wait.

We Found Love bass

1,956 views 1 this week
no commentswrite comment
1 2 3 4 5
x 3
add to favorites
×
Save as Personal and add changes to this tab that will be seen only by you. Learn more ›
×
You can save this tab as Personal to edit and correct it or add notes. All changes will be seen only by you. Learn more »
launch autoscroll
font size
0
reset
guitar tuner
edit
Autoscroll
slow
fast
+/-
esc
set tempo
stop
Author
Difficulty
Song-We Found Love
Bass tab
Bassist-Chilli Jesson
Album 180/Second single
http://www.youtube.com/watch?v=Co5XsEmo2ug

Any corrections please comment i will correct, cheers.

Bass comes in with Drums

Intro Times 2
G---------------------------------|
D---------------------------------|
A--555-2222-555-------------------|
E---------------3333--------------|


Verse Times 4

Laughing all the way to the cell and I've been paid off
Stepping out into the sun 'cos I'm not done

G---------------------------------|
D---------------------------------|
A--555-2222-555-------------------|
E---------------3333--------------|


Chorus (Part 1) Times 2

I'm gonna find myself a ladyfriend
and stick by her until the end
G---------------------------------|
D---------------------------------|
A--222-0000-----5555--------------|
E-----------333-------------------|

Chours (Part 2) Times 2

La la la la la Layla (a) I found love
Oh lord

G---------------------------------|
D---------------------------------|
A--555-2222-555-------------------|
E---------------3333--------------|

instrumental (solo)
G---------------------------------|
D---------------------------------|
A--0-0-0-0-0-0-0-0----------------|
E------------------3-3-3-3-3------|

very lightyly
G----------------------------------|
D----------------------------------|
A-5-5-5-5-5-5-5-5--5-5-5-5-5-5-5-5-|
E----------------------------------|

G---------------------------------|
D---------------------------------|
A-5-5-5-5-5-5-5-5--5-5-5-5--------|
E---------------------------------|

Chorus 2

I'm gonna find myself a ladyfriend
and stick by her until the end

Times 2
G---------------------------------|
D---------------------------------|
A--222-0000-----5555--------------|
E-----------333-------------------|

La la la la la Layla (a) I found love
Oh lord

Times 6
G---------------------------------|
D---------------------------------|
A--555-2222-555-------------------|
E---------------3333--------------|

Instrumental
G----------------------------------|
D----------------------------------|
A--2---0-------0000-0000-0000-0000-|
E----------3-----------------------|

G------------------------------------------------------------------------|
D------------------------------------------------------------------------|
A--5555------5555------5555------55--------55--------55--------55--------|
E-------3333------3333------3333---5-3-55-----5-3-55----5-3-55-----------|

0utro Times 2
G------------------------------------------------------------------------|
D------------------------------------------------------------------------|
A5--------------------5---------2--------------0-----------5-------------|
E------------------------------------------------------------------------|
 You are my serpentine But I'll never look you in the eyes again
 You are my one divine But I'll never look you in the eyes again


NEW Single 29th April 2013

            
            
Suggest correction
Creating personal tab
Creating personal tab
You can edit any tab online and save it as your Personal.

You can edit, replace or remove any tab part or add personal notes – all changes will be seen only by you.

Personal tabs can be accessed anytime from any device, even offline.
Learn more »
Give kudos to tab author, rate the tab!
1 2 3 4 5
comments
print report bad tab
guest
You may want to rate the tab now too:
select rating
Wanna post a correction for this tab? Suggest correction