Oops, an error
Loading. Please wait.

Inspiracion tab

29 views 1 this week
no commentswrite comment
1 2 3 4 5
3 more votes to show rating
add to favorites
×
Save as Personal and add changes to this tab that will be seen only by you. Learn more ›
×
You can save this tab as Personal to edit and correct it or add notes. All changes will be seen only by you. Learn more »
launch autoscroll
font size
0
reset
how to read this tab
guitar tuner
edit
Autoscroll
slow
fast
+/-
esc
set tempo
stop
Esta cancion es de la pelicula 'INSPIRACION', espero que 
ya la hayan visto, 

esta bien chida

Intro:

c#m-G#m-A-E-B

          C#m                       G#m
e---------------------------------------------------
B--6-----6-----6----6--------4----4----4---4--------
G--5-----5-----5----5--------4----4----4---4--------
D---------------------------------------------------
A-----4-----4-----4---4---0----7----7----7---7--0---
E---------------------------------------------------
            A                 E              B
e---------------------------------------------------
B--5----5----5-----5--------0----0--------4----4----
G--6----6----6-----6--------1----1--------4----4----
D---------------------------------------------------
A----7----7-----7----7---0----2----2---0----2----2--
E---------------------------------------------------
(Se repite)

C#m     G#m        A
  Olvide lo que fui
      E       B      C#m
como inicio te segui
        G#m           A   E   B
y ahora dime donde estas.


C#m          G#m    A
  Lo recuerdo bien
          E    B          C#m
juraste estar por siempre
          G#m
yo era invencible estando
A        E  B
junto a tí


E          B            C#m
Y sigo aqui, sin existir
A             B      E
sin una sola inspiracion
        B               C#m
podre vivir, que estoy feliz
            A       B    C#m
pero al final estoy sin tí.


             G#m       A
   Me quede, con tú adios
     E        B     C#m
arrastrando el corazón
           G#m          A  E  B
y dime a donde fue tu amor


C#m          G#m    A
  Lo recuerdo bien
          E    B          C#m
juraste estar por siempre
          G#m
yo era invencible estando
A        E  B
junto a tí


E          B            C#m
Y sigo aqui, sin existir
A             B      E
sin una sola inspiracion
        B               C#m
podre vivir, que estoy feliz
            A       B    C#m
pero al final estoy sin tí.

A-B-E-A-

(igual que lo demas)
Descubri entre tus brazos

poder volar hasta enloquecer

Me perdi entre tus labios

y se que nunca mas podre vivir sin tí.


E          B            C#m
Y sigo aqui, sin existir
A             B      E
sin una sola inspiracion
        B               C#m
podre vivir, que estoy feliz
            A       B    C#m
pero al final estoy sin tí.


E          B            C#m
Y sigo aqui, sin existir
A             B      E
sin una sola inspiracion
        B               C#m
podre vivir, que estoy feliz
            A     B C#m  G#m A E B
pero al final estoy sin tí.
C#m  G#m A E B
sin tí...

e--------------------------------------|----------------------------
B--------------------------------------|----------------------------
G--------------------------------------|----------------------------
D-----------4--4------4----------------|---------9------------------
A--5----7----------6-----4----0---4--2-|--5---7-----5---7----2------
E--------------------------------------|----------------------------

sin tí.


Esta rola Va dedicada a una chica en especial....Adriana, I could be the one
Saludos al Cetis 33!!!
ATTE: 'El Doce'

            
            
Suggest correction
Creating personal tab
Creating personal tab
You can edit any tab online and save it as your Personal.

You can edit, replace or remove any tab part or add personal notes – all changes will be seen only by you.

Personal tabs can be accessed anytime from any device, even offline.
Learn more »
Give kudos to tab author, rate the tab!
1 2 3 4 5
comments
print report bad tab
guest
Wanna post a correction for this tab? Suggest correction