Oops, an error
Loading. Please wait.

Quisiera Decir chords

7 views 1 this week
no commentswrite comment
1 2 3 4 5
3 more votes to show rating
add to favorites
×
Save as Personal and add changes to this tab that will be seen only by you. Learn more ›
×
You can save this tab as Personal to edit and correct it or add notes. All changes will be seen only by you. Learn more »
launch autoscroll
font size
0
reset
transpose
0
reset
simplify chords
display chords
guitar tuner
edit
Autoscroll
slow
fast
+/-
esc
set tempo
stop
Strumming
There is no strumming pattern for this song yet. and get +5 IQ
Intro.

5|-----------------------------------------------------
4|-----------------------4-----------------------------
3|-------------4-2-4---2------------------4-4----------
2|-------5-3-2-------2--------------5-3-2---2----------
1|-2-4-5---------------------2-4-5----------2----------


5|-----------------------------------------------------
4|-----------------------4-----------------------------
3|-------------4-2-4---2------------------4-6-4-2-4-2--
2|-------5-3-2-------2--------------5-3-2--------------
1|-2-4-5---------------------2-4-5---------------------


   Dmaj7
Recién comprendí que esperaban,
     A                            Dmaj7
al fin ahora entiendo al menos.
            Dm    C#m             F#m
Limbo abandonado, quisiera decir...

Atando cordones al cabo
de esta historia, histeriqueando,
lograron que madure un psicótico infantil.

D         A
Váyanse todos
E         F#m
Déjenme en paz
D    A         E
Nada me hace felíz.
D           A
Yo pongo el pecho,
 E       F#m
ustedes nomás
D      A             E
vuelcan sus culpas en mí.

Intro

Sé que se desviven por verme
así me matan de a poco
Aprendí a los golpes cómo destruir
sin que salgan moretones.

Vayanse todos....

Que no soy un objeto,
ni un fin de semana por medio
el archivo de sus celos.

Recién comprendí que esperaban,
al fin ahora entiendo al menos.
Limbo abandonado, quisiera decir...

Váyanse todos
Déjenme en paz
Nada me hace felíz.
Yo pongo el pecho,
ustedes nomás
vuelcan sus culpas en mí.


Váyanse todos ... quisiera decir.

Ahi esta corregido, doy fe! Soy de la banda! Abrazo

            
            
Suggest correction
Creating personal tab
Creating personal tab
You can edit any tab online and save it as your Personal.

You can edit, replace or remove any tab part or add personal notes – all changes will be seen only by you.

Personal tabs can be accessed anytime from any device, even offline.
Learn more »
Give kudos to tab author, rate the tab!
1 2 3 4 5
comments
print report bad tab
guest
Wanna post a correction for this tab? Suggest correction