Oops, an error
Loading. Please wait.

Disculpa Los Malos Pensamientos tab

version 2
version 2

Whole song

Interactive

by Panda
9,869 views 15 this week
no commentswrite comment
1 2 3 4 5
x 3
add to favorites
×
Save as Personal and add changes to this tab that will be seen only by you. Learn more ›
×
You can save this tab as Personal to edit and correct it or add notes. All changes will be seen only by you. Learn more »
launch autoscroll
font size
0
reset
how to read this tab
guitar tuner
edit
Autoscroll
slow
fast
+/-
esc
set tempo
stop
Author
panda
disculpa los malos pensamientos


INTRO  GTR 1
-----------------------------|
-----------------------------|
-4444444---------------------|
-4444444666666622222224444444
-2222222666666622222224444444
--------444444400000002222222

INTRO GTR 2  (X3)
--------------------------------------------------------------------------|
11-11-11-10-11-15-15-15-13-15-13------------------------------------------|
x--x--x--x--x--x--x--x--x--x--x-------------------------------------------|
8--8--8--7--8--12-12-12-10-12-10------------------------------------------|
--------------------------------------------------------------------------|
--------------------------------------------------------------------------|

---------------------------------------------------------------------------|
11---10-10--11-11-11-13-11--10-10-15-15--13--11----------------------------|
x----x--x---x--x--x—--x--x---x--x--x--x---x--x-----------------------------|
8----7--7---8—-8-—8/-10--8---7--7-12-12--10--8-----------------------------|
---------------------------------------------------------------------------|
---------------------------------------------------------------------------|

VERSOS  GTR 2
----------------/---------------/---------------/-----------------------|
-----(X2)-------/-----(X2)------/-----(X2)------/----(X2)---------------|
----------------/---------------/---------------/-----------------------|
----------------/---------------/---------------/----------------4-44---|
---9--7--9-7-6--/---6--4--6-4-3-/---4--2--4-2-1-/---4--2--4-2-1--4-44---|
-77-77-77-------/-44-44-44------/-00-00-00------/-22-22-22-------2-22---|
 .. .. ..         .. .. ..        .. .. ..

CORO

 GTR1
-----------------------------|
-----------------------------|
-4444444---------------------|
-4444444666666622222224444444
-2222222666666622222224444444
--------444444400000002222222
CORO GTR 2(X3)
--------------------------------------------------------------------------|
11-11-11-10-11-15-15-15-13-15-13------------------------------------------|
x--x--x--x--x--x--x--x--x--x--x-------------------------------------------|
8--8--8--7--8--12-12-12-10-12-10------------------------------------------|
--------------------------------------------------------------------------|
--------------------------------------------------------------------------|

---------------------------------------------------------------------------|
11---10-10--11-11-11-13-11--10-10-15-15--13--11----------------------------|
x----x--x---x--x--x—--x--x---x--x--x--x---x--x-----------------------------|
8----7--7---8—-8-—8/-10--8---7--7-12-12--10--8-----------------------------|
---------------------------------------------------------------------------|
---------------------------------------------------------------------------|

INTRO DEL VERSO GTR 1 Y GTR2

----------------/---------------/----------------------------------|
-----(X2)-------/-----(X2)------/-----(X2)-------------------------|
----------------/---------------/----------------------------------|
----------------/---------------/----------------4444444-----------|
---9--7--9-7-6--/---6--4--6-4-3-/---4--2--4-2-1--------------------|
-77-77-77-------/-44-44-44------/-00-00-00-------------------------|
 .. .. ..         .. .. ..        .. .. ..

GT2 CONTINUACION DEL VERSO
----------------/---------------/---------------/----------------|
-----(X2)-------/-----(X2)------/-----(X2)------/----(X2)--------|
----------------/---------------/---------------/----------------|
----------------/---------------/---------------/----------------|
---9--7--9-7-6--/---6--4--6-4-3-/---4--2--4-2-1-/---4--2--4-2-1--|
-77-77-77-------/-44-44-44------/-00-00-00------/-22-22-22-------|
 .. .. ..         .. .. ..        .. .. ..

CELEBRAREMOS....
-----------------------------|
-----------------------------|
-4444444---------------------|
-4444444666666622222224444444
-2222222666666622222224444444
--------444444400000002222222


CORO

 GTR1
-----------------------------|
-----------------------------|
-4444444---------------------|
-4444444666666622222224444444
-2222222666666622222224444444
--------444444400000002222222


CORO GTR 2(X3)
--------------------------------------------------------------------------|
11-11-11-10-11-15-15-15-13-15-13------------------------------------------|
x--x--x--x--x--x--x--x--x--x--x-------------------------------------------|
8--8--8--7--8--12-12-12-10-12-10------------------------------------------|
--------------------------------------------------------------------------|
--------------------------------------------------------------------------|

---------------------------------------------------------------------------|
11---10-10--11-11-11-13-11--10-10-15-15--13--11----------------------------|
x----x--x---x--x--x—--x--x---x--x--x--x---x--x-----------------------------|
8----7--7---8—-8-—8/-10--8---7--7-12-12--10--8-----------------------------|
---------------------------------------------------------------------------|
---------------------------------------------------------------------------|

***OTRA VEZ EL CORO PERO UN POCO MAS DESPACIO****


PARTECILLA ANTES DE LO TRANQUILO

----------------------------------------------|
----------------------------------------------|
-4-6-8--8/4--4-6-8--7-7/8-7-6--6/8--8-7-6-4---|
-4-6-8--8/4--4-6-8--7-7/8-7-6--6/8--8-7-6-4---|
-2-4-6--6/2--2-4-6--5-5/6-5-4--4/6--6-5-4-2---|
----------------------------------------------|

DE ROJO T VES BIEN

----------------|
----------------|
-44-------------|
-44-666-22-4444-|
-22-666-22-4444-|
----444-00-2222-|
 .. ... .. ....

CORO (X2)

fin en acorde

--
--
-4
-4
-2
--

            
            
Suggest correction
Creating personal tab
Creating personal tab
You can edit any tab online and save it as your Personal.

You can edit, replace or remove any tab part or add personal notes – all changes will be seen only by you.

Personal tabs can be accessed anytime from any device, even offline.
Learn more »
Give kudos to tab author, rate the tab!
1 2 3 4 5
comments
print report bad tab
guest
You may want to rate the tab now too:
select rating
Wanna post a correction for this tab? Suggest correction