Oops, an error
Loading. Please wait.

Lascivamente tab

version 1
version 1

Whole song

Interactive

by Panda
858 views 1 this week
no commentswrite comment
1 2 3 4 5
3 more votes to show rating
add to favorites
×
Save as Personal and add changes to this tab that will be seen only by you. Learn more ›
×
You can save this tab as Personal to edit and correct it or add notes. All changes will be seen only by you. Learn more »
launch autoscroll
font size
0
reset
how to read this tab
guitar tuner
edit
Autoscroll
slow
fast
+/-
esc
set tempo
stop
Grupo:    Panda                                           *gahj7..
Cancion:  Lascivamente
Album:    Poetics


El solo no he podido sacarlo, por si alguien ayuda y todo es a oido, por lo que son 
los comentarios para terminar esta canción.

Esta todo en un semi-tono abajo! y en el coro la cuerda 6 en Do#!


Intro
(eres veneno para mi..)
/---------------------------------------------------------------------------|
/---------------------------------------------------------------------------|
/-----14-13-11---14-13-11---14-13-----14-13-------16-13-----16-13----16-13--|
/---------------------------------14--------14----------14--------14--------|
/---------------------------------------------------------------------------|
/---------------------------------------------------------------------------|


--------------/
--------------/
-----16-13----/      x4
14--------14--/
--------------/
--------------/


(brota miel, de tus labios brota miel..)
/----------------------------------------------------------------------------|
/-------------------------------------------------9-------9-------9--------9-|
/---------------------------------------------9-11----9-11----9-11----9-11---|
/-----9-11-12---9-11-12---9-11-12---9-11-12----------------------------------|
/----------------------------------------------------------------------------|
/----------------------------------------------------------------------------|

--/
--/
--/    x2
--/
--/
--/


Intermedio (es lo que por ahora escucho, no esta completo)
(no hay lugar para...)
/----12--10--9--7-5-12-10-9------------------|
/---------------------------10----10-12-10---|
/--------------------------------------------|
/--------------------------------------------|
/--------------------------------------------|
/--------------------------------------------|

                   (en tu perfume infecta..)
Intro y agregarle /--9-9-----9-9-----12-12-----12-12--/
                  /-----------------------------------/
                  /-----------------------------------/
                  /-----------------------------------/
                  /-----------------------------------/
Coro
/--------------------------------------------------/
/--------------------------------------------------/
/--------------------------------------------------/
/--0-0-0---0-0-0---2-2-2---2-2-2---4-4-4---4-4-4---/
/--0-0-0---0-0-0---2-2-2---2-2-2---4-4-4---4-4-4---/
/--0-0-0---0-0-0---2-2-2---2-2-2---4-4-4---4-4-4---/

Acordes
Intro : Fa#-La-Mi x4
        si-Mi x2

Coro:   Re-Mi-Fa# x2
        Re-Mi-Fa#-Do#-Si-Mi

Solo:   Fa#-La-Mi

Letra

Eres veneno para mí
Eres la puerta que yo abrí
Eres la causa del desastre
Tu comprarías mi corazón
Al precio que le ponga yo
Seria una muy buena inversión

Brota miel, de tus labios brota miel
No captare, pues en el fondo eres cruel

No hay lugar para esta ocasión
En tu intriga y atracción
Tiendes a solo corromper el amor
Por eso solo te aguanto yo

En tu perfume infecta el aire de nuestra ciudad
Yo lo respiro, soy letal
Te encanta siempre conseguir
Lo prohibido y carmesí
Te encanta tenernos solo ahí
Y lo peor que te pueda decir
Es te amo, no puedo estar sin ti

No hay lugar para mi esta ocasión
En tu intriga y decepción
Tiendes a solo corromper la pasión
Por eso solo te aguanto yo

No hay lugar para mi esta ocasión
En tu intriga y decepción
Tiendes a solo corromper la pasión
Por eso solo te aguanto yo

No hay lugar para mi esta ocasión
En tu enredo y complot
Tiendes a siempre empujarme al error
Por eso solo te aguanto yo

Yo...

            
            
Suggest correction
Creating personal tab
Creating personal tab
You can edit any tab online and save it as your Personal.

You can edit, replace or remove any tab part or add personal notes – all changes will be seen only by you.

Personal tabs can be accessed anytime from any device, even offline.
Learn more »
Give kudos to tab author, rate the tab!
1 2 3 4 5
comments
print report bad tab
guest
Wanna post a correction for this tab? Suggest correction