Oops, an error
Loading. Please wait.

Narcisista Por Excelencia tab

version 6
by Panda
32 views 1 this week
no commentswrite comment
1 2 3 4 5
3 more votes to show rating
add to favorites
×
Save as Personal and add changes to this tab that will be seen only by you. Learn more ›
×
You can save this tab as Personal to edit and correct it or add notes. All changes will be seen only by you. Learn more »
launch autoscroll
font size
0
reset
how to read this tab
guitar tuner
edit
Autoscroll
slow
fast
+/-
esc
set tempo
stop
Author
Unregistered
INTRO: se repite 2 veces en pal mute
[---------------------------------------------------------]
[---------------------------------------------------------]
[---------------------------------------------------------]
[---------------------------------------------------------]
[-----------5-5-----------5-5-6-6---6-6-5-5-6-6---6-6-5-5-]
[-3-3-1-3-3-----3-3-1-3-3---------6-------------6---------]

se repite 2 veces
[------------------------------------------------------------------]
[------------------------------------------------------------------]
[---------------7-7-------------7-7-8-8-----8-8-7-7-8-8----8-8-7-7-]
[---5-5--3-5-5--7-7?-5-5?-3-5-5-7-7-8-8?-8?-8-8-7-7-8-8?-8-8-8-7-7-]
[---5-5--3-5-5--5-5-?5-5?-3-5-5-5-5-6-6?-8?-6-6-5-5-6-6?-8-6-6-5-5-]
[---3-3--1-3-3-------3-3?-1-3-3----------6---------------6---------]

verso

Sabes k es la inseguridad ? Sabes lo k es sentir la soledad
[------------------------] [-------------------------------]
[------------------------] [-------------------------------]
[------------------------] [---7-7/8-8---------------------]
[-5-5--------------------] [---7-7/8-8---------------------]
[-5-5--------------------] [---5-5/6-6---------------------]
[-3-3--------------------] [-------------------------------]

Mi peor error fue haber aceptado mi fealdad
[-------------------------------------------]
[-------------------------------------------]
[--------------------------------------8-8--]
[--3-3/5-5-----------------------------8-8--]
[--3-3/5-5-----------------------------6-6--]
[--1-1/3-3----------------------------------]

5[--3/9-]
6[--1/7-]

Parte Rápida: esta parte se hace de acuerdo a la velocidad de la voz

Poe k ahora ya no tengo ya no tengo donde esconder el miedo
[--------------------------]
[--------------------------]
[--------------------------]
[--3/5-5/3/5-5/3/5-5/3/5-5-]
[--3/5-5/3/5-5/3/5-5/3/5-5-]
[--1/3-5/1/3-3/1/3-3/1/3-3-]

Y el miedo sigue vivo se la vivo, se la vive aki conmigo
[--------------------------]
[--------------------------]
[--7/8-8/7/8-8/7/8-8/7/8-8-]
[--7/8-8/7/8-8/7/8-8/7/8-8-]
[--5/6-6/5/6-6/5/6-6/5/6-6-]
[--------------------------]
Yo me baso en la apariencia con placer y sin conciencia
[--------------------------]
[--------------------------]
[--------------------------]
[--3/5-5/3/5-5/3/5-5/3/5-5-]
[--3/5-5/3/5-5/3/5-5/3/5-5-]
[--1/3-5/1/3-3/1/3-3/1/3-3-]
Esperando k algún día tu atención fijes en mi
[--------------------------]
[--------------------------]
[--7/8-8/7/8-8/7/8-8/7/8-8-]
[--7/8-8/7/8-8/7/8-8/7/8-8-]
[--5/6-6/5/6-6/5/6-6/5/6-6-]
[--------------------------]
Es por eso k ahora visto asi
[-----------------------------------------------]
[-----------------------------------------------]
[-----------------------------------------------]
[--5-5/7-8-8-8/10-10-10-------10-10-10/12-12-12-]
[--5-5/7-8-8-8/10-10-10-8-8-8-10-10-10/12-12-12-]
[--3-3/5-6-6-6/-8?-8?-8-8-8-8?-8?-8?-8/10-10-10-]
[-----------------------6-6-6-------------------]
Quiero ser elegante y estilero hasta el fin
[-----------------------------------------------]
[-----------------------------------------------]
[-----------------------------------------------]
[--5-5/7-8-8-8/10-10-10-------10-10-10/12-12-12-]
[--5-5/7-8-8-8/10-10-10-8-8-8-10-10-10/12-12-12-]
[--3-3/5-6-6-6/-8?-8?-8-8-8-8?-8?-8?-8/10-10-10-]
[-----------------------6-6-6-------------------]
No podre proyectarlo me lo tengo k creer
[-----------------------------------------------]
[-----------------------------------------------]
[-----------------------------------------------]
[--5-5/7-8-8-8/10-10-10-------10-10-10/12-12-12-]
[--5-5/7-8-8-8/10-10-10-8-8-8-10-10-10/12-12-12-]
[--3-3/5-6-6-6/-8?-8?-8-8-8-8?-8?-8?-8/10-10-10-]
[-----------------------6-6-6-------------------]
PRECORO

Suponiendo k en la gente la belleza es natural
[------------------------------------------------------]
[------------------------------------------------------]
[--------------8-8-8-*8-8*------------10-10-10-*10-10*-]
[--5-5-5-*5-5*-8-8-8-*8-8*-8-8-8*8-8*-10-10-10-*10-10*-]
[--5-5-5-*5-5*-6-6-6-*6-6*-8-8-8*8-8*--8--8?-8-*-8--8*-]
[--3-3-3-*3-3*-------------6-6-6*6-6*------------------]

LAS NOTAS K APARACAN CON LOS ASTERISCOS ES POR K VAN MUY JUNTAS

Pues belleza es la palabra k aun no logro completar
[------------------------------------------------------]
[------------------------------------------------------]
[--------------8-8-8-*8-8*------------10-10-10-*10-10*-]
[--5-5-5-*5-5*-8-8-8-*8-8*-8-8-8*8-8*-10-10-10-*10-10*-]
[--5-5-5-*5-5*-6-6-6-*6-6*-8-8-8*8-8*--8--8?-8-*-8--8*-]
[--3-3-3-*3-3*-------------6-6-6*6-6*------------------]

KORO

Disfraz, disfraz, narcisista artificial
[-------------------------------------------------------]
[-------------------------------------------------------]
[--8-8-8-*8-8*-------------10-10-10-*10-10*-------------]
[--8-8-8-*8-8*-8-8-8-*8-8*-10-10-10-*10-10*-5-5-5-*5-5*-]
[--6-6-6-*6-6*-8-8-8-*8-8*--8--8?-8-*-8--8*-5-5-5-*5-5*-]
[--------------6-6-6-*6-6*------------------3-3-3-*3-3*-]

Disfraz, disfraz, todo es mental
[-------------------------------------------------------]
[-------------------------------------------------------]
[--8-8-8-*8-8*-------------10-10-10-*10-10*-------------]
[--8-8-8-*8-8*-8-8-8-*8-8*-10-10-10-*10-10*-5-5-5-*5-5*-]
[--6-6-6-*6-6*-8-8-8-*8-8*--8--8?-8-*-8--8*-5-5-5-*5-5*-]
[--------------6-6-6-*6-6*------------------3-3-3-*3-3*-]

SE REPITE EL INTRO 2 veces

[------------------------------------------------------------------]
[------------------------------------------------------------------]
[---------------7-7-------------7-7-8-8-----8-8-7-7-8-8----8-8-7-7-]
[---5-5--3-5-5--7-7?-5-5?-3-5-5-7-7-8-8?-8?-8-8-7-7-8-8?-8-8-8-7-7-]
[---5-5--3-5-5--5-5-?5-5?-3-5-5-5-5-6-6?-8?-6-6-5-5-6-6?-8-6-6-5-5-]
[---3-3--1-3-3-------3-3?-1-3-3----------6---------------6---------]
CONTINUACION

ESTA PARTE USTEDES SAKENLE EL RITMO Y ESCUCHEN BN LA CANCION
Y VERAN K LES KEDA ELEGANTE
[---------------------------------------
[---------------------------------------
[8-8-8-8-7-7-7-7------------------------
[----------------8-8-8-8-8-5-5-5-5-5-5-5
[--------------------------------------
[---------------------------------------
----------------------------------------------]
----------------8-8-8-8-8-10-10-10-12-12-10-10]
8-8-8-8-7-7-7-7-------------------------------]
----------------------------------------------]
----------------------------------------------]
----------------------------------------------]
Como me peinare esta noche
K ropa me combinara mejor
Tener tu interés
Convertirlo en amor
Quisiera poder saber k piensas
Me veré bien o caso me veo mal
Sé que es patético pero en mi es normal

SE REPITE EL PREOCRO Y EL KORO

Suponiendo k en la gente la belleza es natural
[------------------------------------------------------]
[------------------------------------------------------]
[--------------8-8-8-*8-8*------------10-10-10-*10-10*-]
[--5-5-5-*5-5*-8-8-8-*8-8*-8-8-8*8-8*-10-10-10-*10-10*-]
[--5-5-5-*5-5*-6-6-6-*6-6*-8-8-8*8-8*--8--8?-8-*-8--8*-]
[--3-3-3-*3-3*-------------6-6-6*6-6*------------------]

LAS NOTAS K APARACAN CON LOS ASTERISCOS ES POR K VAN MUY JUNTAS

Pues belleza es la palabra k aun no logro completar
[------------------------------------------------------]
[------------------------------------------------------]
[--------------8-8-8-*8-8*------------10-10-10-*10-10*-]
[--5-5-5-*5-5*-8-8-8-*8-8*-8-8-8*8-8*-10-10-10-*10-10*-]
[--5-5-5-*5-5*-6-6-6-*6-6*-8-8-8*8-8*--8--8?-8-*-8--8*-]
[--3-3-3-*3-3*-------------6-6-6*6-6*------------------]

KORO

Disfraz, disfraz, narcisista artificial
[-------------------------------------------------------]
[-------------------------------------------------------]
[--8-8-8-*8-8*-------------10-10-10-*10-10*-------------]
[--8-8-8-*8-8*-8-8-8-*8-8*-10-10-10-*10-10*-5-5-5-*5-5*-]
[--6-6-6-*6-6*-8-8-8-*8-8*--8--8?-8-*-8--8*-5-5-5-*5-5*-]
[--------------6-6-6-*6-6*------------------3-3-3-*3-3*-]

Disfraz, disfraz, todo es mental
[-------------------------------------------------------]
[-------------------------------------------------------]
[--8-8-8-*8-8*-------------10-10-10-*10-10*-------------]
[--8-8-8-*8-8*-8-8-8-*8-8*-10-10-10-*10-10*-5-5-5-*5-5*-]
[--6-6-6-*6-6*-8-8-8-*8-8*--8--8?-8-*-8--8*-5-5-5-*5-5*-]
[--------------6-6-6-*6-6*------------------3-3-3-*3-3*-]

PARTE DEL PIANO
                           ESTO SE HACE 3 VECES Y LUEGO
                            EN LA 3 SE LE AGREGA ESTO

                           [--6-5---------] [----------]
[--------------------13-]  [------8-6-8---] [----------]
[-----------------------]  [------------7-] [?8-10-8-7-]
[--15-12-15-10----15-10-]  [--------------] [----------]
[-----------------------]  [--------------] [----------]
[--13-10-13?-8----13----]  [--------------] [----------]
[-----------------------]


[---------------11-10-----][----------------11-10-11-13-11-10-]
[--11-10--------------11--][--11-10---------------------------]
[--------12-10-12---------][--------12-10-12------------------]
[-------------------------][----------------------------------]
[-------------------------][----------------------------------]
[-------------------------][----------------------------------]

[-----------------11-10----]
[--11-10----------------11-]
[--------12-10-12----------]
[--------------------------]
[--------------------------]
[--------------------------]

PARTE RAPIDA

[--5-6?-6-5---------------------------------------------]
[------8----8-6-8-6---6---6-----------------------------]
[-------------------8---8---8-7-8-7-8-7-5---5---5---5---]
[-----------------------------------------8---8---8-----]
[-----------------------------------------------------8-]
[-------------------------------------------------------]

SI KIEREN SE REPITE ESTO O SI NO AGAN ESTO


Suponiendo k en la gente la belleza es natural
[------------------------------------------------------]
[------------------------------------------------------]
[--------------8-8-8-*8-8*------------10-10-10-*10-10*-]
[--5-5-5-*5-5*-8-8-8-*8-8*-8-8-8*8-8*-10-10-10-*10-10*-]
[--5-5-5-*5-5*-6-6-6-*6-6*-8-8-8*8-8*--8--8?-8-*-8--8*-]
[--3-3-3-*3-3*-------------6-6-6*6-6*------------------]

LAS NOTAS K APARACAN CON LOS ASTERISCOS ES POR K VAN MUY JUNTAS

Pues belleza es la palabra k aun no logro completar
[------------------------------------------------------]
[------------------------------------------------------]
[--------------8-8-8-*8-8*------------10-10-10-*10-10*-]
[--5-5-5-*5-5*-8-8-8-*8-8*-8-8-8*8-8*-10-10-10-*10-10*-]
[--5-5-5-*5-5*-6-6-6-*6-6*-8-8-8*8-8*--8--8?-8-*-8--8*-]
[--3-3-3-*3-3*-------------6-6-6*6-6*------------------]

KORO

Disfraz, disfraz, narcisista artificial
[-------------------------------------------------------]
[-------------------------------------------------------]
[--8-8-8-*8-8*-------------10-10-10-*10-10*-------------]
[--8-8-8-*8-8*-8-8-8-*8-8*-10-10-10-*10-10*-5-5-5-*5-5*-]
[--6-6-6-*6-6*-8-8-8-*8-8*--8--8?-8-*-8--8*-5-5-5-*5-5*-]
[--------------6-6-6-*6-6*------------------3-3-3-*3-3*-]

Disfraz, disfraz, todo es mental
[-------------------------------------------------------]
[-------------------------------------------------------]
[--8-8-8-*8-8*-------------10-10-10-*10-10*-------------]
[--8-8-8-*8-8*-8-8-8-*8-8*-10-10-10-*10-10*-5-5-5-*5-5*-]
[--6-6-6-*6-6*-8-8-8-*8-8*--8--8?-8-*-8--8*-5-5-5-*5-5*-]
[--------------6-6-6-*6-6*------------------3-3-3-*3-3*-]


no sean mal agradecidos dejen sus comentarios en el coreo de
kla-1997@
espero k la gocen

            
            
Suggest correction
Creating personal tab
Creating personal tab
You can edit any tab online and save it as your Personal.

You can edit, replace or remove any tab part or add personal notes – all changes will be seen only by you.

Personal tabs can be accessed anytime from any device, even offline.
Learn more »
Give kudos to tab author, rate the tab!
1 2 3 4 5
comments
print report bad tab
guest
Wanna post a correction for this tab? Suggest correction