Oops, an error
Loading. Please wait.

No Tienes Oportunidad Contra Mi Patetica Imaginacion tab

by Panda
52 views 3 this week
no commentswrite comment
1 2 3 4 5
3 more votes to show rating
add to favorites
×
Save as Personal and add changes to this tab that will be seen only by you. Learn more ›
×
You can save this tab as Personal to edit and correct it or add notes. All changes will be seen only by you. Learn more »
launch autoscroll
font size
0
reset
how to read this tab
guitar tuner
edit
Autoscroll
slow
fast
+/-
esc
set tempo
stop
Aki les dejo esta rola, esta bien curada y ojala la disfruten..
Saludos a la Rondalla de Colegio Larrea de parte de su hermano
Francisco Limon..  Tam Natali =)              Larga Vida Tuza.!


  -"No Tienes Oportunidad Contra Mi Antipática Imagicacíon"-


Afinación: EADGBe(Standard)

Los acordes estan en quintas, asi que chequenlas bien:

   C# F# A# G#
e|--------------|
B|--------------|
G|-6------------|
D|-6--4--8--6---|
A|-4--4--8--6---|
E|-x--2--6--4---|

-Riff 1
      C#      F#       A#       G#
e|---------------------------------------|
B|---------------------------------------|
G|-66666666------------------------------|
D|-66666666-44444444-88888888-66666666---| x2
A|-44444444-44444444-88888888-66666666---|
E|-xxxxxxxx-22222222-66666666-44444444---|

-Riff 2
    F#    G#    C#    A#
e|---------------------------|
B|---------------------------|
G|-------------6666----------|
D|-4444-666666-6666-888888---| x3
A|-4444-666666-4444-888888---|
E|-2222-444444-xxxx-666666---|
P.M..... ....  ..... .....
    F#    G#
e|-------------|
B|-------------|
G|-------------|
D|-4444-666666-|
A|-4444-666666-|
E|-2222-444444-|

-Coro
      C#      A#       F#       G#
e|---------------------------------------|
B|---------------------------------------|
G|-66666666------------------------------|
D|-66666666-88888888-44444444-66666666---| x2
A|-44444444-88888888-44444444-66666666---|
E|-xxxxxxxx-66666666-22222222-44444444---|

-Riff 3


e|-------------------------------------------------|
B|--9--9-9--9-9-9-9-9-9-11--7--7-7--7-7-7-7-7-7-11-|
G|--x--x-x--x-x-x-x-x-x-x---x--x-x--x-x-x-x-x-x-x--|
D|--6--6-6--6-6-6-6-6-6-8---4--4-4--4-4-4-4-4-4-8--|
A|-------------------------------------------------|
E|-------------------------------------------------|


e|-------------------------------------------------|
B|--7--7-7--7-7-7-7-7-7-11-9-9-9-9-11-11-9-9-------|
G|--x--x-x--x-x-x-x-x-x-x--x-x-x-x-x--x--x-x-------|
D|--4--4-4--4-4-4-4-4-4-8--6-6-6-6-8--8--6-6-------|
A|-------------------------------------------------|
E|-------------------------------------------------|

-Riff 4
solo

   C#                               C# F#
e|------------------------------------------|
B|-14-2-2-13-2-2-14-2-2-16-2-2-14-2-13-2----|
G|------------------------------------------|
D|------------------------------------------|
A|------------------------------------------|
E|------------------------------------------|

                                                   x2
   A#                               F# G#
e|------------------------------------------|
B|-14-2-2-13-2-2-14-2-2-13-2-2-11-2-2-2-----|
G|------------------------------------------|
D|------------------------------------------|
A|------------------------------------------|
E|------------------------------------------|


Outro

e|-----------------------------|
B|--9--9-9--9-9-9-9-9-9-11-----|
G|--x--x-x--x-x-x-x-x-x-x---4--|
D|--6--6-6--6-6-6-6-6-6-8---4--|
A|--------------------------6--|
E|-----------------------------|

Orden:

Riff 1
Riff 2
Coro
Riff 3
Riff 1
Riff 2
Coro
Riff 4
Coro (Sin Guitarra hasta el 2º verso)
Coro
Outro

_ _ _ _ _ _ _ _ _ _ _ _ _ _ _ _ _ _ _ _ _ _ _ _ _
-------------------------------------------------

Letras:

       C#                         F#
Lo que hagas con tu tiempo esta bien
      A#                         G#
yo nunca me gastare el mío otra vez
       C#                            F#
dices tu que pierdo el tiempo sin parar
        A#                   G#
pues contigo lo perdía nada mas

F#   G#           C#             G#
creeme que aprendí a ya no perdonar
F#   G#           C#                    G#
creeme tu te acabaste toda toda mi bondad
F#    G#            C#         G#      F#
ahora solo espero verte con alguien mas
           G#
para comenzar


         C#
Y ya no verte mas
         A#
Ya para de llorar
         F#                   G#
Te juro que algún día te arrepentirás
        C#                     A#
Eso estaría mejor pues mi imaginación
           F#                  G#
Podría desearte algo que es mucho peor

C#  F#  A#  G#

C#............PM..............F#
Quiero verte ya con alguien mas
          A#                   G#
y asi envenenar el aire ambiental
      C#                        F#
Solo tu sabes como hacerme llorar
         A#                   G#
y a la tumba el secreto llevaras

F#   G#           C#             G#
Creeme que ya he olvidado como es eso de querer
F#   G#           C#             G#
creeme que ya he cambiado ya no soy lo que tu crees
F#          G#              C#   G#      F#
Me he convertido en todo un cínico asi es
             G#
Te lo debo a ti


        C#
Y ya no verte mas
        A#
Ya para de llorar
         F#                   G#
Te juro que algún día te arrepentirás
         C#                    A#
Eso estaría mejor pues mi imaginación
            F#                  G#
Podría desearte algo que es mucho peor

C#  C#-F#  A#  F#-G# x2

   (silencio)
Y ya no verte mas
   (silencio)
Ya para de llorar
   (silencio)
Te juro que algún día te arrepentirás
         C#                    A#
Eso estaría mejor pues mi imaginación
            F#                  G#
Podría desearte algo que es mucho peor

Y ya no verte...

(quiero verte ya con alguien mas
Y asi envenenar el aire ambiental
solo tu sabes como hacerme llorar
y a la tumba es secreto llevaras)

C# <- Acorde Final


Cualquier duda, comentario o sugerencia al mail
francool9@
Saludos a todos.!!

            
            
Suggest correction
Creating personal tab
Creating personal tab
You can edit any tab online and save it as your Personal.

You can edit, replace or remove any tab part or add personal notes – all changes will be seen only by you.

Personal tabs can be accessed anytime from any device, even offline.
Learn more »
Give kudos to tab author, rate the tab!
1 2 3 4 5
comments
print report bad tab
guest
Wanna post a correction for this tab? Suggest correction