Oops, an error
Loading. Please wait.

Quisiera No Pensar bass

version 1
version 1

Whole song

Interactive

by Panda
586 views 1 this week
no commentswrite comment
1 2 3 4 5
3 more votes to show rating
add to favorites
×
Save as Personal and add changes to this tab that will be seen only by you. Learn more ›
×
You can save this tab as Personal to edit and correct it or add notes. All changes will be seen only by you. Learn more »
launch autoscroll
font size
0
reset
guitar tuner
edit
Autoscroll
slow
fast
+/-
esc
set tempo
stop
Author
Difficulty
                  Quisiera No Pensar - Panda
------------------------------------------------------------------------------------------------|

Tabbed By: moys13
e-mail: poetafoix7@hotail.com

Tunning: standard

Intro:
G|-------------------------------------------------------------------------|
D|-------------------------------------------------------------------------|
A|4~---4x--4x-44447777------4444------------44447777------4444-------------|
E|--------------------444454----000022224444--------444454----00002x-------|

Verse(cuando mpiezan los violines/when the violins get started):
G|-------------------------------------------------------------------------|
D|---------------(x2)------------------------------------------------------|
A|44-444------------------44-44411-111-------------------------------------|
E|------44-44411-11122-222-------------------------------------------------|

Pre-Chorus:"quisiera no pensar..."(x2)
G|-------------------------------------------------------------------------|
D|-------------------------------------------------------------------------|
A|44444444------------------------4444444411111111-------------------------|
E|--------444444441111111122222222----------------222222244444444----------|

Chorus:"y ojala q nseguida..."
G|------------------------------------------------------------------------------|
D|------------------------------------------------------------------------------|
A|-----------444441111111------------444441111111-----------444444222111--------|
E|22224444444------------222224444444------------22222444444------------222224--|

Verse(x1)

Pre-chorus(x2)

Chorus

Bridge:
G|-------------------------------------------------------------------------|
D|-------------------------------------------------------------------------|
A|44-4------------44-4------------44-4------------4444---------------------|
E|----44-411-122-2----44-411-122-2----44-411-122-2----444411112222---------|

Chorus

Outro:(s lo mismo q l verso/ is the same that the verse)

Y eso s todo, yo creo q sta correcto al 100% pero si tienen alguna duda ste s mi e-mail:
poetafoix7@hotmail.com

And that's all, i think it is correct at the 100% if you have any doubt this is my
poetafoix7@hotmail.com

Lyrics/letra:
Quisiera no pensar, pues en pensar no ayuda ya, quisiera yo salirme de la realidad, el
va a estallar, tanta violencia sin piedad, no puedo soportar, vamos a olvidar

Y ojala q enseguida, saleme la otra vida, un sombreo una hebilla, ser un vaquero todo l
asi olvidarme del dolor que el mundo m causo, quisiera no pensar

Quisiera no pensar, ser olvidado nada mas, y asi ya descansar mas facil sera, y ya no
pues este mundo trata mal a gente inocente feliz se verdad

pensar, que es muy probable que el mundo vaya a cambiar, pensar, que el mundo va a estar
lleno de maldad, pensar, que algun verano las cosas seran igual, pensar, quisiera no pensar.

            
            
Suggest correction
Creating personal tab
Creating personal tab
You can edit any tab online and save it as your Personal.

You can edit, replace or remove any tab part or add personal notes – all changes will be seen only by you.

Personal tabs can be accessed anytime from any device, even offline.
Learn more »
Give kudos to tab author, rate the tab!
1 2 3 4 5
comments
print report bad tab
guest
You may want to rate the tab now too:
select rating
Wanna post a correction for this tab? Suggest correction