Oops, an error
Loading. Please wait.

Solo A Terceros tab

version 2
by Panda
14,394 views 6 this week
no commentswrite comment
1 2 3 4 5
x 10
add to favorites
×
Save as Personal and add changes to this tab that will be seen only by you. Learn more ›
×
You can save this tab as Personal to edit and correct it or add notes. All changes will be seen only by you. Learn more »
launch autoscroll
font size
0
reset
how to read this tab
guitar tuner
edit
Autoscroll
slow
fast
+/-
esc
set tempo
stop
Esta Cancion esta En D# Afinacion.

Nueva Rola De Panda !!! 



Intro
|--------------------------------------------------------------1-------1--|
|------1------1------------1------1------1-------1-----------1---1-----1--|
|----1------1------1-----1------1------1-------1------1----1-------1---1--|
|--3------3------3-----2------2------1-------1------1----0-------------3--|
|-------------------------------------------------------------------------|
|-------------------------------------------------------------------------|

   PM....
                        
|----------------------------------------------|
|----------------------------------------------|
|--5---5-5-5-5-5-5-5-5-5-5-5-5-5-5-5-----------|
|--5---5-5-5-5-5-5-5-5-5-5-5-5-5-5-5-----------|
|--3---3-3-3-3-3-3-3-3-3-3-3-3-3-3-3-----------|
|----------------------------------------------|


  Verso
                        
|------------------------------------------------------|
|-5---6---6--------------------------------------------|
|-5--(5)-(5)-------------------------------------------|
|------------7-7-7-7-7-7-7-5-5-5-5-5-5-5---------------|
|------------------------------------------------------|
|------------------------------------------------------|
   Tal vez no sucedió.........
                        
|------------------------------------------------|
|-5---6---6--------------------------------------|
|-5--(5)-(5)-------------------------------------|
|------------7-7-7-7-7-7-7-2-2-2-2-3-3-3---------|
|------------------------------------------------|
|------------------------------------------------|

|------------------------------------------------------|
|-5---6---6--------------------------------------------|
|-5--(5)-(5)-------------------------------------------|
|------------7-7-7-7-7-7-7-5-5-5-5-5-5-5---------------|
|------------------------------------------------------|
|------------------------------------------------------|

                
|------------------------------------------------|
|-5---6---6--------------------------------------|
|-5--(5)-(5)-------------------------------------|
|------------7-7-7-7-7-7-7-2-2-2-2-3-3-3---------|
|------------------------------------------------|
|------------------------------------------------|

|------------------------------------------------------|
|-5---6---6--------------------------------------------|
|-5--(5)-(5)-------------------------------------------|
|------------7-7-7-7-7-7-7-5-5-5-5-5-5-5---------------|
|------------------------------------------------------|
|------------------------------------------------------|
               
|------------------------------------------------|
|-5---6---6--------------------------------------|
|-5--(5)-(5)-------------------------------------|
|------------7-7-7-7-7-7-7-2-2-2-2-3-3-3---------|
|------------------------------------------------|
|------------------------------------------------|

|------------------------------------------------------|
|-5---6---6--------------------------------------------|
|-5--(5)-(5)-------------------------------------------|
|------------7-7-7-7-7-7-7-5-5-5-5-5-5-5---------------|
|------------------------------------------------------|
|------------------------------------------------------|
               
|------------------------------------------------|
|-5---6---6--------------------------------------|
|-5--(5)-(5)-----------------------5-5-5---------|
|------------7-7-7-7-7-7-7-2-2-2-2-3-3-3---------|
|------------------------------------------------|
|------------------------------------------------|


Guitarra Ritmica

Pre coro 

Es tu secundario.....

|------------------------------------------------------------------------|
|------------------------------------------------------------------------|
|-3-3-3-3-3-3-3-3---------------------------------------7-7---10-10------|
|-3-3-3-3-3-3-3-3--3-3-3-3-3-3-3-3---5-5-5-5-5-5-5-5----7-7---10-10--8---|
|-1-1-1-1-1-1-1-1--3-3-3-3-3-3-3-3---3-3-3-3-3-3-3-3----5-5---8--8---8---|
|------------------1-1-1-1-1-1-1-1-----------------------------------6---|

|---------------------------------------------------------------|
|---------------------------------------------------------------|
|-3-3-3-3-3-3-3-3---------------------5-5-5-5-5-5-5-5-5-5-5-5---|
|-3-3-3-3-3-3-3-3--3-3-3-3-3-3-3-3----5-5-5-5-5-5-5-5-5-5-5-5---|
|-1-1-1-1-1-1-1-1--3-3-3-3-3-3-3-3----3-3-3-3-3-3-3-3-3-3-3-3---|
|------------------1-1-1-1-1-1-1-1------------------------------|

|------------------------------------------------------------------------|
|------------------------------------------------------------------------|
|-3-3-3-3-3-3-3-3--------------------5-5-5-5-5-5-5-----7-7---10-10-------|
|-3-3-3-3-3-3-3-3--3-3-3-3-3-3-3-3---5-5-5-5-5-5-5-----7-7---10-10----8--|
|-1-1-1-1-1-1-1-1--3-3-3-3-3-3-3-3---3-3-3-3-3-3-3-----5-5---8--8-----8--|
|------------------1-1-1-1-1-1-1-1------------------------------------6--|

|---------------------------------------------------------------|
|---------------------------------------------------------------|
|-3-3-3-3-3-3-3-3---------------------5-5-5-5-5-5-5-5-5-5-5-5---|
|-3-3-3-3-3-3-3-3--3-3-3-3-3-3-3-3----5-5-5-5-5-5-5-5-5-5-5-5---|
|-1-1-1-1-1-1-1-1--3-3-3-3-3-3-3-3----3-3-3-3-3-3-3-3-3-3-3-3---|
|------------------1-1-1-1-1-1-1-1------------------------------|

Coro 

    QUE QUIERO ESCuCHARLO !!! 

|----------------------------------------------------------|
|----------------------------------------------------------|
|--5-5----10--10-------------------------------------------|
|--5-5----10--10-------------------------------------------|   (x3)
|--7-7----8---8-------8-8------8-8-----8-----8-------------|   
|---------------------6-6------6-6-----6-----6-------------|

|----------------------------------------------------------|
|----------------------------------------------------------| 
|--5-5----10--10------9---9------9---9-------9-------------|
|--5-5----10--10------10--10-----10--10------10------------|   
|--7-7----8---8-------7---7------7---7-------7-------------|   
|----------------------------------------------------------|


|----------------------------------------------------------|
|----------------------------------------------------------|
|--5-5----10--10-------------------------------------------|
|--5-5----10--10-------------------------------------------|   (x3)
|--7-7----8---8-------8-8------8-8-----8-----8-------------|   
|---------------------6-6------6-6-----6-----6-------------|

|----------------------------------------------------------|
|----------------------------------------------------------|
|----------------------------------------------------------|
|-----5-5-----5-5------5-5-----5-5-----5-------5-----------|
|-----3-3-----3-3------3-3-----3-3-----3-------3-----------|
|----------------------------------------------------------|


|------------------------------------------------------|
|-5---6---6--------------------------------------------|
|-5--(5)-(5)-------------------------------------------|
|------------7-7-7-7-7-7-7-5-5-5-5-5-5-5---------------|
|------------------------------------------------------|
|------------------------------------------------------|
   
|------------------------------------------------|
|-5---6---6--------------------------------------|
|-5--(5)-(5)-------------------------------------|
|------------7-7-7-7-7-7-7-2-2-2-2-3-3-3---------|
|------------------------------------------------|
|------------------------------------------------|


 VERSO 2
      
      Como se sintio.....
|------------------------------------------------------|
|-5---6---6--------------------------------------------|
|-5--(5)-(5)-------------------------------------------|
|------------7-7-7-7-7-7-7-5-5-5-5-5-5-5---------------|
|------------------------------------------------------|
|------------------------------------------------------|

                
|------------------------------------------------|
|-5---6---6--------------------------------------|
|-5--(5)-(5)-------------------------------------|
|------------7-7-7-7-7-7-7-2-2-2-2-3-3-3---------|
|------------------------------------------------|
|------------------------------------------------|

|------------------------------------------------------|
|-5---6---6--------------------------------------------|
|-5--(5)-(5)-------------------------------------------|
|------------7-7-7-7-7-7-7-5-5-5-5-5-5-5---------------|
|------------------------------------------------------|
|------------------------------------------------------|
               
|------------------------------------------------|
|-5---6---6--------------------------------------|
|-5--(5)-(5)-------------------------------------|
|------------7-7-7-7-7-7-7-2-2-2-2-3-3-3---------|
|------------------------------------------------|
|------------------------------------------------|

|------------------------------------------------------|
|-5---6---6--------------------------------------------|
|-5--(5)-(5)-------------------------------------------|
|------------7-7-7-7-7-7-7-5-5-5-5-5-5-5---------------|
|------------------------------------------------------|
|------------------------------------------------------|
               
|------------------------------------------------|
|-5---6---6--------------------------------------|
|-5--(5)-(5)-----------------------5-5-5---------|
|------------7-7-7-7-7-7-7-2-2-2-2-3-3-3---------|
|------------------------------------------------|
|------------------------------------------------|

Pre coro 

        Y aunque nunca te alejaste de mi......
|-----------------------------------------------------------------------|
|-----------------------------------------------------------------------|
|-3-3-3-3-3-3-3-3---------------------------------------7-7---10-10-----|
|-3-3-3-3-3-3-3-3--3-3-3-3-3-3-3-3---5-5-5-5-5-5-5-5----7-7---10-10--8--|
|-1-1-1-1-1-1-1-1--3-3-3-3-3-3-3-3---3-3-3-3-3-3-3-3----5-5---8--8---8--|
|------------------1-1-1-1-1-1-1-1-----------------------------------6--|

|---------------------------------------------------------------|
|---------------------------------------------------------------|
|-3-3-3-3-3-3-3-3---------------------5-5-5-5-5-5-5-5-5-5-5-5---|
|-3-3-3-3-3-3-3-3--3-3-3-3-3-3-3-3----5-5-5-5-5-5-5-5-5-5-5-5---|
|-1-1-1-1-1-1-1-1--3-3-3-3-3-3-3-3----3-3-3-3-3-3-3-3-3-3-3-3---|
|------------------1-1-1-1-1-1-1-1------------------------------|

|---------------------------------------------------------------------------|
|---------------------------------------------------------------------------|
|-3-3-3-3-3-3-3-3--------------------5-5-5-5-5-5-5-----7-7---10-10----------|
|-3-3-3-3-3-3-3-3--3-3-3-3-3-3-3-3---5-5-5-5-5-5-5-----7-7---10-10----8-----|
|-1-1-1-1-1-1-1-1--3-3-3-3-3-3-3-3---3-3-3-3-3-3-3-----5-5---8--8-----8-----|
|------------------1-1-1-1-1-1-1-1------------------------------------6-----|

|-----------------------------------------------------------------|
|-----------------------------------------------------------------|
|-3-3-3-3-3-3-3-3---------------------5-5-5-5-5-5-5-5-5-5-5-5-----|
|-3-3-3-3-3-3-3-3--3-3-3-3-3-3-3-3----5-5-5-5-5-5-5-5-5-5-5-5-----|
|-1-1-1-1-1-1-1-1--3-3-3-3-3-3-3-3----3-3-3-3-3-3-3-3-3-3-3-3-----|
|------------------1-1-1-1-1-1-1-1--------------------------------|

CORO
       Quiero ESCUCHARLO !!!!! 
|----------------------------------------------------------|
|----------------------------------------------------------|
|--5-5----10--10-------------------------------------------|
|--5-5----10--10-------------------------------------------|   (x3)
|--7-7----8---8-------8-8------8-8-----8-----8-------------|   
|---------------------6-6------6-6-----6-----6-------------|

|----------------------------------------------------------|
|----------------------------------------------------------| 
|--5-5----10--10------9---9------9---9-------9-------------|
|--5-5----10--10------10--10-----10--10------10------------|   
|--7-7----8---8-------7---7------7---7-------7-------------|   
|----------------------------------------------------------|


|----------------------------------------------------------|
|----------------------------------------------------------|
|--5-5----10--10-------------------------------------------|
|--5-5----10--10-------------------------------------------|   (x3)
|--7-7----8---8-------8-8------8-8-----8-----8-------------|   
|---------------------6-6------6-6-----6-----6-------------|

|----------------------------------------------------------|
|----------------------------------------------------------|
|----------------------------------------------------------|
|-----5-5-----5-5------5-5-----5-5-----5-------5-----------|
|-----3-3-----3-3------3-3-----3-3-----3-------3-----------|
|----------------------------------------------------------|


Piano

1-------------------------------------------------|
1-13-13-13-----------------------------13-13-13---|  
1-----------12-14-12-12---------------------------|   
1------------------------12-14-15-14-1------------|
1-------------------------------------------------|
1-------------------------------------------------|



1----------------------------|
1----------------------------|
1-12-14-12-12----------------|
1-------------12-14-15-14----|
1----------------------------|
1----------------------------|

SOLO 


1--------------------------------------------|
1-13-13-13-----------------------------------|
1----------12-14-12/////12/11/10/9/8/7/6/5---|
1--------------------------------------------|   
1--------------------------------------------|
1--------------------------------------------|



1------------------------------------|
1------------------------------------|
1-10---10--9--9/////10---10/////12---|
1------------------------------------|
1------------------------------------|
1------------------------------------|


   NO me arrepiento.....
1--------------------------------------------------|
1--------------------------------------------------|
1-15-15-15-15-15-15-15-15-10-10-10-10-10-10-10-10--|
1--------------------------------------------------|
1------------------------------------------'-------|
1--------------------------------------------------|

|--------------------------------------------------|
|--------------------------------------------------|
|-9-9-9-9-9-9-9-9-9-12-12-12-14-14-12-12-12--------|
|--------------------------------------------------|
|--------------------------------------------------|

1-----------------------------------------|
1-----------------------------------------|
1-7-7-7-7-7-7-7-7-14-14-14-14-14-14-10-10-|
1-----------------------------------------|
1-----------------------------------------|
1-----------------------------------------|

1--------------------------------------------------|
1--------------------------------------------------|
1-5-5-5-5-5-5-5-5-12-12-12-12-12-12-12-12----------|
1--------------------------------------------------|
1--------------------------------------------------|
1--------------------------------------------------|

1--------------------------------------------------|
1--------------------------------------------------|
1-15-15-15-15-15-15-15-15-10-10-10-10-10-10-10-10--|
1--------------------------------------------------|
1--------------------------------------------------|
1--------------------------------------------------|

|--------------------------------------------------|
|--------------------------------------------------|
|-9-9-9-9-9-9-9-9-9-12-12-12-14-14-12-12-12--10///-|
|--------------------------------------------------|
|--------------------------------------------------|


PUes no quiero perdermelo....

CORO
 
y quiero escucharlo.....

|--------------------------------------------------|
|--------------------------------------------------|
|--5-5----10--10-----------------------------------|
|--5-5----10--10-----------------------------------|   (x3)
|--7-7----8---8-------8-8------8-8-----8-----8-----|   
|---------------------6-6------6-6-----6-----6-----|

|-------------------------------------------------|
|-------------------------------------------------| 
|--5-5----10--10------9---9------9---9-------9----|
|--5-5----10--10------10--10-----10--10------10---|   
|--7-7----8---8-------7---7------7---7-------7----|   
|-------------------------------------------------|


|----------------------------------------------------|
|----------------------------------------------------|
|--5-5----10--10-------------------------------------|
|--5-5----10--10-------------------------------------|   (x3)
|--7-7----8---8-------8-8------8-8-----8-----8-------|   
|---------------------6-6------6-6-----6-----6-------|

|---------------------------------------------------|
|---------------------------------------------------|
|---------------------------------------------------|
|-----5-5-----5-5------5-5-----5-5-----5-------5----|
|-----3-3-----3-3------3-3-----3-3-----3-------3----|
|---------------------------------------------------|


|--------------------------------------------|
|-5---6---6----------------------------------|
|-5--(5)-(5)---------------------------------|
|------------7-7-7-7-7-7-7-5-5-5-5-5-5-5-----|
|--------------------------------------------|
|--------------------------------------------|

                
|------------------------------------------|
|-5---6---6--------------------------------|
|-5--(5)-(5)-------------------------------|
|------------7-7-7-7-7-7-7-2-2-2-2-3-3-3---|
|------------------------------------------|
|------------------------------------------|

|--------------------------------------------|
|-5---6---6----------------------------------|
|-5--(5)-(5)---------------------------------|
|------------7-7-7-7-7-7-7-5-5-5-5-5-5-5-----|
|--------------------------------------------|
|--------------------------------------------|
               
|---------------------------------------------|
|-5---6---6-----------------------------------|
|-5--(5)-(5)----------------------------------|
|-------------7-7-7-7-7-7-7-2-2-2-2-3-3-3-----|
|---------------------------------------------|
|---------------------------------------------|

|---------------------------------------------|
|-5---6---6-----------------------------------|
|-5--(5)-(5)----------------------------------|
|------------7-7-7-7-7-7-7-5-5-5-5-5-5-5------|
|---------------------------------------------|
|---------------------------------------------|


FIN !!!! 

Wall E !!! 

Eva !!!

            
            
Suggest correction
Creating personal tab
Creating personal tab
You can edit any tab online and save it as your Personal.

You can edit, replace or remove any tab part or add personal notes – all changes will be seen only by you.

Personal tabs can be accessed anytime from any device, even offline.
Learn more »
comments
print report bad tab
guest
You may want to rate the tab now too:
select rating
Wanna post a correction for this tab? Suggest correction