Oops, an error
Loading. Please wait.

Emperors New Clothes tab

version 2
version 2

Whole song

Interactive

1,819 views 15 this week
no commentswrite comment
1 2 3 4 5
3 more votes to show rating
add to favorites
×
Save as Personal and add changes to this tab that will be seen only by you. Learn more ›
×
You can save this tab as Personal to edit and correct it or add notes. All changes will be seen only by you. Learn more »
launch autoscroll
font size
0
reset
how to read this tab
guitar tuner
edit
Autoscroll
slow
fast
+/-
esc
set tempo
stop
Author
Tabbed from this cover: https://www.youtube.com/watch?v=Hk7ygKDcplg
In this cover/ P!ATD Live it is half a step down tuning. To play along with the studio recorded song put
guitar in standard tuning with a capo on 1. 


[Intro]

e|----------------|
B|----------------|
G|----------------|
D|----------------| x2  
A|---0-3-1-0h1p0-5|
E|---------------3|


[Verse]

"Welcome to the end of eras..."
e|-------------------------------------------------------------------------------------|
B|-------------------------------------------------------------------------------------|
G|-------------------------------------------------------------------------------------|
D|-------------------------------------------------------------------------------------| x2   
A|------------------------------/13-13-13-13-------------------------------------------|            
E|---11\---5-5-5-5-5-5-5-5--11\---------------11-13------------------------------------|


[Pre-Chorus]

"If it feels good, tastes good..."

e|--------------------------------------------------------------------------------------------|
B|--------------------------------------------------------------------------------------------|
G|--------------------------------------------------------------------------------------------|
D|---8-8-8-8-8-8-8-8--5-5-5-5-5-5-5-5---------------------------------------------------------|
A|---8-8-8-8-8-8-8-8--5-5-5-5-5-5-5-5------------------------------/13-13-13-13---------------|
E|---6-6-6-6-6-6-6-6--3-3-3-3-3-3-3-3----11\---5-5-5-5-5-5-5-5--11\---------------11-13-11----|
     . . . . . . . .  . . . . . . . .

         
Just before "and if you don't know now you know"        
  
e|----------------|
B|----------------|
G|----------------|
D|----------------| 
A|---0-3-1-0h1p0-5|
E|---------------3|


[Chorus]

"I'm taking back the crown..."

e|------------------------------------------------------------------------------------------------|
B|------------------------------------------------------------------------------------------------|
G|------------------------------------------------------------------------------------------------| x2
D|---8-8-8-8-8-8-8-8--5-5-5-5-5-5-5-5-------------------------------13--3-5-6-12------------------|           
A|---8-8-8-8-8-8-8-8--5-5-5-5-5-5-5-5-----------------------------------3-5-6-12------------------|
E|---6-6-6-6-6-6-6-6--3-3-3-3-3-3-3-3--11\---5-5-5-5-5-5-5-5--11\-------1-3-4-10------------------|


[Instrumental]

e|----------------|
B|----------------|
G|----------------|
D|----------------| x2  
A|---0-3-1-0h1p0-5|
E|---------------3|


[Verse]

 
e|-------------------------------------------------------------------------------------|
B|-------------------------------------------------------------------------------------|
G|-------------------------------------------------------------------------------------|
D|-------------------------------------------------------------------------------------| x2   
A|------------------------------/13-13-13-13-------------------------------------------|            
E|---11\---5-5-5-5-5-5-5-5--11\---------------11-13------------------------------------|


[Pre-Chorus]

"If it feels good, tastes good..."
e|--------------------------------------------------------------------------------------------|
B|--------------------------------------------------------------------------------------------|
G|--------------------------------------------------------------------------------------------|
D|---8-8-8-8-8-8-8-8--5-5-5-5-5-5-5-5---------------------------------------------------------|
A|---8-8-8-8-8-8-8-8--5-5-5-5-5-5-5-5------------------------------/13-13-13-13---------------|
E|---6-6-6-6-6-6-6-6--3-3-3-3-3-3-3-3----11\---5-5-5-5-5-5-5-5--11\---------------11-13-11----|
     . . . . . . . .  . . . . . . . .

         
Just before "and if you don't know now you know"        
  
e|----------------|
B|----------------|
G|----------------|
D|----------------| 
A|---0-3-1-0h1p0-5|
E|---------------3|


[Chorus]

"I'm taking back the crown..."

e|------------------------------------------------------------------------------------------------|
B|------------------------------------------------------------------------------------------------|
G|------------------------------------------------------------------------------------------------| x2
D|---8-8-8-8-8-8-8-8--5-5-5-5-5-5-5-5-------------------------------13--3-5-6-12------------------|           
A|---8-8-8-8-8-8-8-8--5-5-5-5-5-5-5-5-----------------------------------3-5-6-12------------------|
E|---6-6-6-6-6-6-6-6--3-3-3-3-3-3-3-3--11\---5-5-5-5-5-5-5-5--11\-------1-3-4-10------------------|


[Post-Bridge]

(Oh oh yeah oh oh woah oh oh))
B|---------------------------------------------------------------------------------------------|
e|---------------------------------------------------------------------------------------------|
G|---------------------------------------------------------------------------------------------|
D|-8-8-8-8-8-8-8-8--5-5-5-5-5-5-5-5----13\--7-7-7-7-7-7-7-7---13--13--13-13-13-13-13-13-13-13--| 
A|-8-8-8-8-8-8-8-8--5-5-5-5-5-5-5-5----13\--7-7-7-7-7-7-7-7---13--13--13-13-13-13-13-13-13-13--| 
E|-6-6-6-6-6-6-6-6--3-3-3-3-3-3-3-3----11\--5-5-5-5-5-5-5-5---11--11--11-11-11-11-11-11-11-11--|


[Chorus]
 
e|------------------------------------------------------------------------------------------------|
B|------------------------------------------------------------------------------------------------|
G|------------------------------------------------------------------------------------------------| x2
D|---8-8-8-8-8-8-8-8--5-5-5-5-5-5-5-5-------------------------------13--3-5-6-12------------------|           
A|---8-8-8-8-8-8-8-8--5-5-5-5-5-5-5-5-----------------------------------3-5-6-12------------------|
E|---6-6-6-6-6-6-6-6--3-3-3-3-3-3-3-3--11\---5-5-5-5-5-5-5-5--11\-------1-3-4-10------------------|

e|------------------------------------------------------------------------------------------------|
B|------------------------------------------------------------------------------------------------|
G|------------------------------------------------------------------------------------------------| x2
D|---8-8-8-8-8-8-8-8--5-5-5-5-5-5-5-5-------------------------------13--3-5-6-12------------------|           
A|---8-8-8-8-8-8-8-8--5-5-5-5-5-5-5-5-----------------------------------3-5-6-12------------------|
E|---6-6-6-6-6-6-6-6--3-3-3-3-3-3-3-3--11\---5-5-5-5-5-5-5-5--11\-------1-3-4-10------------------|


[Outro]

e|----------------|
B|----------------|
G|----------------|
D|----------------| x4  
A|---0-3-1-0h1p0-5|
E|---------------3|



************************************

| h  Hammer-on
| p  Pull-off
| /  Slide up
| \  Slide down
| .  Palm mute 

************************************

            
            
Suggest correction
Creating personal tab
Creating personal tab
You can edit any tab online and save it as your Personal.

You can edit, replace or remove any tab part or add personal notes – all changes will be seen only by you.

Personal tabs can be accessed anytime from any device, even offline.
Learn more »
Give kudos to tab author, rate the tab!
1 2 3 4 5
comments
print report bad tab
guest
You may want to rate the tab now too:
select rating
Wanna post a correction for this tab? Suggest correction