Oops, an error
Loading. Please wait.

Far Too Young To Die tab

version 1
version 1

Whole song

952 views 3 this week
2 commentsread comments
1 2 3 4 5
x 4
add to favorites
×
Save as Personal and add changes to this tab that will be seen only by you. Learn more ›
×
You can save this tab as Personal to edit and correct it or add notes. All changes will be seen only by you. Learn more »
launch autoscroll
font size
0
reset
how to read this tab
guitar tuner
edit
Autoscroll
slow
fast
+/-
esc
set tempo
stop
Tabbed by: jcameronp
Tuning: Drop D

--

Intro

Guitar 1: (pick over and over or let ring, it doesn't matter)

e|-6------3------10-----8----------------------------------------------------|
B|---------------------------------------------------------------------------|
G|---------------------------------------------------------------------------| x3, starts at beginning
D|---------------------------------------------------------------------------|
A|---------------------------------------------------------------------------|
D|---------------------------------------------------------------------------|

Guitar 2:

e|---------------------------------------------------------------------------|
B|---------------------------------------------------------------------------|
G|---------------------------------------------------------------------------| x2, starts around 0:15
D|---------------------------------------------------------------------------|
A|---------------------------------------------------------------------------|
D|-5-strum-1-strum-8-strum-3-strum-------------------------------------------|

Guitar 3:

e|---------------------------------------------------------------------------|
B|-----6------------6------------6-------------------------------------------|
G|-7-5---8-7-3--7-5---8-3-7--7-5---8-7-5--7-5-8-7----------------------------| x1, starts around 0:30
D|-----------------------------------------------8-5~------------------------|
A|---------------------------------------------------------------------------|
D|---------------------------------------------------------------------------|

--

Verse 1 

Guitar 1: (pick over and over or let ring, it doesn't matter)

e|-6------3------10-----8----------------------------------------------------|
B|---------------------------------------------------------------------------|
G|---------------------------------------------------------------------------| x1, starts around 1:04 ends
D|---------------------------------------------------------------------------|     right before chorus
A|---------------------------------------------------------------------------|
D|---------------------------------------------------------------------------|

Guitar 2:

e|---------------------------------------------------------------------------|
B|---------------------------------------------------------------------------|
G|---------------------------------------------------------------------------| x2, starts at beginning ends
D|---------------------------------------------------------------------------|     right before chorus
A|---------------------------------------------------------------------------|
D|-5-strum-1-strum-8-strum-3-strum-------------------------------------------|

Guitar 3: silent

--

Chorus

Guitar 1: (pick notes with * over and over or let ring, it doesn't matter)

e|-6*------8-10-3*------5-6-1*------6*------8*-------11*---------------------|
B|---------------------------------------------------------------------------|
G|---------------------------------------------------------------------------| x2
D|---------------------------------------------------------------------------|
A|---------------------------------------------------------------------------|
D|---------------------------------------------------------------------------|

Guitar 2:

e|---------------------------------------------------------------------------|
B|---------------------------------------------------------------------------|
G|---------------------------------------------------------------------------| x2
D|-5-------1-------8-------3-------------------------------------------------|
A|-5-strum-1-strum-8-strum-3-strum-------------------------------------------|
D|-5-------1-------8-------3-------------------------------------------------|

Guitar 3:

e|---------------------------------------------------------------------------|
B|-----6------------6------------6-------------------------------------------|
G|-7-5---8-7-3--7-5---8-3-7--7-5---8-7-5--7-5-8-7----------------------------| x1
D|-----------------------------------------------8-5~------------------------|
A|---------------------------------------------------------------------------|
D|---------------------------------------------------------------------------|

--

Verse 2

Guitar 1: (piano)

e|-6-5-3--3-5-6--6-5-3--3-5-6-10--6-5-3--3-5-6--10-8-6-----------------------|
B|---------------------------------------------------------------------------|
G|---------------------------------------------------------------------------| 
D|---------------------------------------------------------------------------|
A|---------------------------------------------------------------------------|
D|---------------------------------------------------------------------------|

Guitar 2:

e|---------------------------------------------------------------------------|
B|---------------------------------------------------------------------------|
G|---------------------------------------------------------------------------| 
D|---------------------------------------------------------------------------|     
A|---------------------------------------------------------------------------|
D|-5-strum-1-strum-8-strum-3-strum-------------------------------------------|


Guitar 3: silent

--

Chorus x2

Guitar 1: (pick notes with * over and over or let ring, it doesn't matter)

e|-6*------8-10-3*------5-6-1*------6*------8*-------11*-10-6----------------|
B|---------------------------------------------------------------------------|
G|---------------------------------------------------------------------------| x2
D|---------------------------------------------------------------------------|
A|---------------------------------------------------------------------------|
D|---------------------------------------------------------------------------|

Guitar 2:

e|---------------------------------------------------------------------------|
B|---------------------------------------------------------------------------|
G|---------------------------------------------------------------------------| x2
D|-5-------1-------8-------3-------------------------------------------------|
A|-5-strum-1-strum-8-strum-3-strum-------------------------------------------|
D|-5-------1-------8-------3-------------------------------------------------|

Guitar 3:

e|---------------------------------------------------------------------------|
B|-----6------------6------------6-------------------------------------------|
G|-7-5---8-7-3--7-5---8-3-7--7-5---8-7-5--7-5-8-7----------------------------| x1
D|-----------------------------------------------8-5~------------------------|
A|---------------------------------------------------------------------------|
D|---------------------------------------------------------------------------|

--

Final Chorus (starts at 2:38)

Guitar 1: (pick notes with * over and over or let ring, it doesn't matter)

e|-6*------8-10-3*------5-6-1*------6*------8*-------11*-10-6----------------|
B|---------------------------------------------------------------------------|
G|---------------------------------------------------------------------------| x2
D|---------------------------------------------------------------------------|
A|---------------------------------------------------------------------------|
D|---------------------------------------------------------------------------|

Guitar 2:

e|---------------------------------------------------------------------------|
B|---------------------------------------------------------------------------|
G|---------------------------------------------------------------------------| x2
D|-5-------1-------8-------3-------------------------------------------------|
A|-5-strum-1-strum-8-strum-3-strum-------------------------------------------|
D|-5-------1-------8-------3-------------------------------------------------|

Guitar 3:

e|---------------------------------------------------------------------------|
B|-----6------------6------------6-------------------------------------------|
G|-7-5---8-7-3--7-5---8-3-7--7-5---8-7-5--7-5-8-7----------------------------| x2
D|-----------------------------------------------8-5~------------------------|
A|---------------------------------------------------------------------------|
D|---------------------------------------------------------------------------|


--

Outro

Strum 5th fret of low D

            
            
Suggest correction
Creating personal tab
Creating personal tab
You can edit any tab online and save it as your Personal.

You can edit, replace or remove any tab part or add personal notes – all changes will be seen only by you.

Personal tabs can be accessed anytime from any device, even offline.
Learn more »
comments
print report bad tab
2 comments total.
+1 reply
tomatoheadache 10 Aug 03, 2016 12:37 AM

Amazing tab! Keep on the great work and more possibly more Panic!
Everything sounded amazing and planning to make a cover for this song! Would you consider letting me know the bass? Is it playing the same stuff as the guitar but an octave lower?

0 reply
jcameronp 822 Aug 05, 2016 08:47 AM

I don't have a bass so I couldn't tab that out for you but I'm assuming it is. Thanks!

guest
You may want to rate the tab now too:
select rating
Wanna post a correction for this tab? Suggest correction