Oops, an error
Loading. Please wait.

Miss Jackson tab

version 1
version 1

Whole song

Interactive

16,573 views 39 this week
5 commentsread comments
1 2 3 4 5
x 8
add to favorites
×
Save as Personal and add changes to this tab that will be seen only by you. Learn more ›
×
You can save this tab as Personal to edit and correct it or add notes. All changes will be seen only by you. Learn more »
launch autoscroll
font size
0
reset
how to read this tab
guitar tuner
edit
Autoscroll
slow
fast
+/-
esc
set tempo
stop
Author
----------------------------------
MISS JACKSON - PANIC! AT THE DISCO
----------------------------------

Tabbed by: @jaaaared
E-mail: jared3225@gmail.com

Tuning: Standard


------------
[INTRO/CHORUS]
------------

e|-----------------------------------------|
B|-----------------------------------------|
G|--7-7-7-7-7~~~~~~\-----------------------|  x4 
D|-----------------------------------------|
A|--5-5-5-5-5~~~~~~\-----------------------|
E|-----------------------------------------|


------------------
VERSE (PALM MUTED)
------------------
        

e|-----------------------------------------|
B|-----------------------------------------|
G|-----------------------------------------|
D|------7-------5-5-3----------------------|  x2
A|--5-5---5-----------5-3------------------|
E|-----------------------------------------|


e|--------------------------------------------|
B|--------------------------------------------|
G|--------------------------------------------|
D|------7---------5---5--6-7-8-----8---7--7-7-|
A|--5-5---5-----5----------------8---8--------|
E|--------------------------------------------|


-----------------------
[PRE-CHORUS (PALM-MUTED)]
-----------------------


e|--------------------------------------------|
B|--------------------------------------------|
G|--------------------------------------------|
D|--------------------------------------------|
A|--5-x8---3-x8---1-x8---3-x8-----------------|
E|--------------------------------------------|


e|--------------------------------------------|
B|--------------------------------------------|
G|--------------------------------------------|
D|--------------------------------------------|
A|--5-x8---3-x8---1-x8---0-x8-----------------|
E|--------------------------------------------|



************************************

| x  Dead note

************************************

            
            
Suggest correction
Creating personal tab
Creating personal tab
You can edit any tab online and save it as your Personal.

You can edit, replace or remove any tab part or add personal notes – all changes will be seen only by you.

Personal tabs can be accessed anytime from any device, even offline.
Learn more »
comments
print report bad tab
5 comments total. Showing first comments.
+1 reply
ParamoreBrad 10 Aug 08, 2013 06:02 AM

This is great but I think there are two more power chords in the intro to finish it off
e|-----------------------------------------|
B|-----------------------------------------|
G|-----------------------------------------|
D|--8-8-8-8-8----7-7-7-7-7-----------------|
A|-----------------------------------------|
E|--6-6-6-6-6----5-5-5-5-5-----------------|

0 reply
ParamoreBrad 10 Aug 08, 2013 06:04 AM

I mean

e|-----------------------------------------|
B|-----------------------------------------|
G|-----------------------------------------|
D|-----------------------------------------|
A|--8-8-8-8-8----7-7-7-7-7-----------------|
E|--6-6-6-6-6----5-5-5-5-5-----------------|

0 reply
Pk403 112 Aug 09, 2013 12:51 AM

i'm pretty sure those notes are played by the bass

the main 5/7 chord is repeated for every bar
if you wanted, i could add a secondary guitar that plays powerchords?

guest
You may want to rate the tab now too:
select rating
Wanna post a correction for this tab? Suggest correction