Oops, an error
Loading. Please wait.

Ready To Go Get Me Out Of My Mind bass

version 1
version 1

Whole song

Interactive

3,925 views 9 this week
no commentswrite comment
1 2 3 4 5
x 3
add to favorites
×
Save as Personal and add changes to this tab that will be seen only by you. Learn more ›
×
You can save this tab as Personal to edit and correct it or add notes. All changes will be seen only by you. Learn more »
launch autoscroll
font size
0
reset
guitar tuner
edit
Autoscroll
slow
fast
+/-
esc
set tempo
stop
Difficulty
-------------------------------------------------------------------------------
           READY TO GO (GET ME OUT OF MY MIND) - Panic! At the Disco
-------------------------------------------------------------------------------
Tabbed by: Cark

Tuning: Standard

Intro (repeat 1st break 3x)                          
G|----------------------------------|-----------------------------------|
D|----------------------------------|--------------------------------20-|
A|---------00000000-----------------|---------00000000--------8-8023----|
E|-33333333--------1111111111111111-|-33333333--------11111111----------|

Verse 1
G|-------------------------------------------------------------------|
D|----------------------------------------------------------------02-|
A|---------00000000------------------------00000000--------8-8023----|
E|-33333333--------111111111111111133333333--------11111111----------|

G|-------------------------------------------------------------------|
D|-------------------------------------------------------------------|
A|---------00000000------------------------00000000------------3333--|
E|-33333333--------111111111111111133333333--------1111-11111-1------|

1st Chorus
G|-------------------------------------------------------------------|
D|----------------------------------------------------------------20-|
A|---------00000000------------------------00000000--------8-8023----|
E|-33333333--------111111111111111133333333--------11111111----------|

Verse 2
G|-------------------------------------------------------------------|
D|----------------------------------------------------------------20-|
A|---------00000000------------------------00000000--------8-8023----|
E|-33333333--------111111111111111133333333--------11111111----------|

G|-------------------------------------------------------------------|
D|-------------------------------------------------------------------|
A|---------00000000------------------------00000000------------3333--|
E|-33333333--------111111111111111133333333--------1111-11111-1------|

2nd Chorus
G|-------------------------------------------------------------------|
D|----------------------------------------------------------------02-|
A|---------00000000------------------------00000000--------8-8023----|
E|-33333333--------111111111111111133333333--------11111111----------|

Bridge
G|--------------------------------|
D|--------------------------------|
A|-0-0-0-0------------------------|(2x)
E|---------3-3-3-3-1-1-1-1-1-1-1-1|

G|---------------------------------------------------------------|
D|---------------------------------------------------------------|
A|---------00000000------------------------00000000--------------|
E|-33333333--------111111111111111133333333--------1111111111111-|

G|---------------------------------------------------------------|
D|---------------------------------------------------------------|
A|---------00000000------------------------00000000--------------|
E|-33333333--------111111111111111133333333--------11111111-20\8-|

Chorus/Outro
G|-------------------------------------------------------------------|
D|----------------------------------------------------------------02-|
A|---------00000000------------------------00000000--------8-8023----|
E|-33333333--------111111111111111133333333--------11111111----------|

| /  slide up
| \  slide down
| h  hammer-on
| p  pull-off
| ~  vibrato
| +  harmonic
| x  Mute note
===============================================================================

            
            
Suggest correction
Creating personal tab
Creating personal tab
You can edit any tab online and save it as your Personal.

You can edit, replace or remove any tab part or add personal notes – all changes will be seen only by you.

Personal tabs can be accessed anytime from any device, even offline.
Learn more »
Give kudos to tab author, rate the tab!
1 2 3 4 5
comments
print report bad tab
guest
Wanna post a correction for this tab? Suggest correction