Oops, an error
Loading. Please wait.

Slaughtered tab

version 2
version 2

Whole song

Interactive

by Pantera
39,358 views 42 this week
13 commentsread comments
1 2 3 4 5
x 20
add to favorites
×
Save as Personal and add changes to this tab that will be seen only by you. Learn more ›
×
You can save this tab as Personal to edit and correct it or add notes. All changes will be seen only by you. Learn more »
launch autoscroll
font size
0
reset
how to read this tab
guitar tuner
edit
Autoscroll
slow
fast
+/-
esc
set tempo
stop
============================================================================
----------------------------------------------------------------------------
                              SLAUGHTERED - Pantera
----------------------------------------------------------------------------
                             Far Beyond Driven, 1994

Tabbed by: Josué
Email: concrete_donkey7@hotmail.com


This is it, no one else has tabbed it out as good as I have, Pantera's 
Slaughtered in all it's glorious entirety. I've included the exact timing, 
just look at the spacing.
This has gotta be one of Pantera's heaviest songs, and the lyrics are really
cool too.  According to Blistering.com, this is supposed to be Pantera's 8th
best song ever. Hmmm... anyway, that list can be viewed through this website,
just type in Pantera -> News.


Tuning: 1/2 step down or 1/4 step down
Q=156


[Intro]

  Rhythm Figure 1:        
D#|--------------------------------|-------------------------------||
A#|--------------------------------|-------------------------------||
F#|--------------------------------|------------------------------*||
C#|------------4-------------------|--------3---------------3-----*||
G#|------------4-------5-------3---|--------3---------------3------||
D#|0-0-0-0-0-----------3-------1---|0-0-0-0-1-------0-0-0-0-1------||(x6)

  PM......................................|        PM.....|


[Intro Part 2]

  Rhythm Figure 2:                                    
D#|--------------------------------|----------------------------------||
A#|--------------------------------|----------------------------------||
F#|--------------------------------|---------------------------------*||
C#|--------------------------------|---------------------------------*||
G#|----------------4-/-9-\-5-------|5-/-10-\-6-------6-/-11-\-7-------||
D#|0-0-0-0-0-0-0---2-/-7-\-3-------|3-/--8-\-4-------4-/--9-\-5-------||(x4)
  PM...........|


[Verse]
Rhythm Figure 1 (x4)


[Pre-Chorus]
  Rhythm Figure 3:        
D#|--------------------------------|-------------------------------||
A#|--------------------------------|-------------------------------||
F#|--------------------------------|------------------------------*||
C#|------------2-------3-------2---|--------5---------------7-----*||
G#|0-0-0-0-0---2-------1-------0---|--------5---------------7------||
D#|--------------------------------|5-5-5-5-3-------5-5-5-5-5------||(x4)
  PM.............................| PM.....|        PM.....| 


[Chorus]
  Rhythm Figure 4:
D#|--------------------------------|----------------------------------||
A#|--------------------------------|----------------------------------||
F#|--------------------------------|---------------------------------*||
C#|--------------------------------|---------------------------------*||
G#|2---2---2---2---4-/-9-\-5-------|5-/-10-\-6-------6-/-11-\-7-------||
D#|0---0---0---0---2-/-7-\-3-------|3-/--8-\-4-------4-/--9-\-5-------||(x4)
      PM.......|




[Verse]
Rhythm Figure 1 X8



[Pre-Chorus]
Rhythm Figure 3 X4



[Chorus]
Rhythm Figure 4 X4



[Post-Chorus]
  Rhythm Figue 5:
D#|--------------------------------|-------------------------------||
A#|--------------------------------|-------------------------------||
F#|--------------------------------|------------------------------*||
C#|--------------------------------|6----6----6----6----6----6----*||
G#|--------------------------------|5----5----5----5----5----5-----||
D#|0-0-0-0-0-0-0-0-0-0-0-0-0-0-0-0-|4----4----4----4----4----4-----||(x4)
  PM.............................|




[Bridge]
Q=95


[Interlude]

D#|--------------------------------|6-------------------------------||
A#|--------------------------------|4-------------------------------||
F#|--------------------------------|3------------------------------*||
C#|--------------------------------|------------------------3---3--*||
G#|2-------------------------------|------------------------1---1---||
D#|0-------------------------------|--------------------------------||(x2)
                               


Rhythm Figure 6
   /----3----\ /----3----\ /----3----\ /----3----\ 
D#||------------------------------------------------|
A#||------------------------------------------------|
F#||------------------------------------------------|
C#||------------------------------------------------|
G#||2---2---2---1---2---2---2---2---2---1---2---2---|
D#||0---0---0---0---0---0---0---0---0---0---0---0---|(x4)
   PM.............................................|

  /----3----\ /----3----\ /----3----\ /----3----\ 

D#|------------------------------------------------||
A#|------------------------------------------------||
F#|-----------------------------------------------*||
C#|------------------------------------3---3---3--*||
G#|2---2---2---1---2---2---2---2---2---1---1---1---||
D#|0---0---0---0---0---0---0---0---0---------------||
   PM.................................|


Rhythm Figure 7
(Tricky!)
PM 6th string through out-> 
   /----6----\ /----6----\ /----6----\ /----6----\                               
D#||------------------------------------------------|
A#||------------------------------------------------|
F#||------------------------------------------------|
C#||3---4---2---3-----------------------------------|
G#||----------------3---4---2---3-------------------|
D#||--0---0---0---0---0---0---0---0-3-0-4-0-2-0-3-0-|(x2)
                                              
   /----6----\ /----6----\ /----6----\ /----3----\                                  
D#|------------------------------------------------||
A#|------------------------------------------------||
F#|-----------------------------------------------*||
C#|3---4---2---3-----------------------4---4--(4)-*||
G#|----------------3---4---2---3-------2---2--(2)--||
D#|--0---0---0---0---0---0---0---0-3-0-------------||



Rhythm Figure 6 X2


Rhythm Figure 7 X2


Then This:
Fill   2/4
 /----5---\/----3----\ 
D#|----------------------|
A#|----------------------|
F#|----------------------|
C#|----------4---4-(-4-)-|
G#|----------2---2-(-2-)-|
D#|0-0-0-0-0-------------|


[Chorus]
[Rhythm Figure 4] (x4)


[Outro]

[Rhythm Figure 4] (x4)(Do Sin etc)

[Rhythm Figure 5] (x4)(Phil just going "RRGH")



************************************

| *    Natural harmonic
| /    Slide up
| \    Slide down
| PM   Palm mute
| >    Accented note
| (n)  Ghost note

************************************

            
            
Suggest correction
Creating personal tab
Creating personal tab
You can edit any tab online and save it as your Personal.

You can edit, replace or remove any tab part or add personal notes – all changes will be seen only by you.

Personal tabs can be accessed anytime from any device, even offline.
Learn more »
comments
print report bad tab
13 comments total. Showing first comments.
-2 reply
Josué 80 May 04, 2005 08:00 PM

Just adding in something I forgot to put in: The Bridge is in 12/8 time, ie, it consists of 12 eights notes grouped in sets of 4 triplets. So, it's the same as 4/4 time, but only triplets.

0 reply
dimebag411 10 Jul 25, 2006 08:47 AM

Dude that was kick ass! I didn't find one mistake thanks alot!


Peace,
Dimebag

+3 reply
Slatera 907 May 18, 2007 08:01 PM

I Think this is wrong

Interlude X2
||--------------------------------|6-------------------------------||
||--------------------------------|4-------------------------------||
||--------------------------------|3------------------------------*||
||--------------------------------|------------------------3---3--*||
||2-------------------------------|------------------------1---1---||
||0-------------------------------|--------------------------------||

I Think This Is Right

Interlude X2 N.H.
||--------------------------------|12------------------------------||
||--------------------------------|--------------------------------||
||--------------------------------|-------------------------------*||
||--------------------------------|------------------------3---3--*||
||2-------------------------------|------------------------1---1---||
||0-------------------------------|--------------------------------||

guest
You may want to rate the tab now too:
select rating
Wanna post a correction for this tab? Suggest correction