Oops, an error
Loading. Please wait.

Underground In America bass

version 2
version 2

Whole song

by Pantera
1,266 views 1 this week
no commentswrite comment
1 2 3 4 5
x 3
add to favorites
×
Save as Personal and add changes to this tab that will be seen only by you. Learn more ›
×
You can save this tab as Personal to edit and correct it or add notes. All changes will be seen only by you. Learn more »
launch autoscroll
font size
0
reset
guitar tuner
edit
Autoscroll
slow
fast
+/-
esc
set tempo
stop
Author
Difficulty
                                Pantera 
                        The Underground In America


Tuning: Standard
/ - slide up
x - fretting (put your finger on the first fret but don't hold it down)


intro/chorus
-----------------|
-----------------|
-----------------|
-0-3/5-4-7-0-5-7-|

chorus pt.2
-------------------------|
-------------------------|
-------------------------|
-0-0-0-5-5-5-4-4-4-3-2-1-|


verse1
------------------------------|------------------------------|
------------------------------|------------------------------|
-7-----7-----7-----7------7---|-7-----7------7------7------7-|
---5-5---5-5---5-5----5-5---0-|---5-5----5-5----5-5----5-5---|


verse2
-----------------|
-----------------|
-----------------|
-0-0-x-x-x-x-x-x-|


shred
-------------------------------------------|-----------|
-------------------------------------------|-----------|
-------------------------------------------|--------4^-|
-0-1-0-0-5-0-0-3-0-0-5-0-0-1-0-0-5-4-3-2-3-|-0-1-0-----|

this part isn't played by bass but i thought i'd tab it for you
because is sounds amazing.


solo
-----------|
-----------|
-----------|
-0-2-0-0-0-| this is played though the solo


their ^^^ all the riffs you need 

the other bass tab for this was pretty crap, sorry but i couldn't understand it.

            
            
Suggest correction
Creating personal tab
Creating personal tab
You can edit any tab online and save it as your Personal.

You can edit, replace or remove any tab part or add personal notes – all changes will be seen only by you.

Personal tabs can be accessed anytime from any device, even offline.
Learn more »
Give kudos to tab author, rate the tab!
1 2 3 4 5
comments
print report bad tab
guest
You may want to rate the tab now too:
select rating
Wanna post a correction for this tab? Suggest correction