Oops, an error
Loading. Please wait.

Well Grind That Axe For A Long Time tab

version 2
version 2

Whole song

Interactive

by Pantera
4,010 views 1 this week
1 commentread comment
1 2 3 4 5
x 4
add to favorites
×
Save as Personal and add changes to this tab that will be seen only by you. Learn more ›
×
You can save this tab as Personal to edit and correct it or add notes. All changes will be seen only by you. Learn more »
launch autoscroll
font size
0
reset
how to read this tab
guitar tuner
edit
Autoscroll
slow
fast
+/-
esc
set tempo
stop
Author
Song: We'll Grind That Axe For A Long Time
Artist: Pantera
Composer: Darrell(Dimebag)Lance Abbott
Album: Reinventing the steel
Tabbed by : Abdlhamid Saeed
E-mail : elberenzzz@hotmail.com

Tuning : guitar tuned down one step (low to high : DGCFAD)

Tablature Legend
----------------

b   - bend
/\  - slide ups and downs
PM  - palm muting


Intro Riff
D-----------------|-----------------|
A-----------------|-----------------|
F-----------------|-----------------|
C-----------------|-----------------|
G-5-/-6--3-/-4--2-|-5-/-6--3-/-4--2-|
D-3-/-4--1-/-2--0-|-3-/-4--1-/-2--0-|

play the intro riff 4 times

then play this with palm muting

D-------|
A-------|
F-------|
C-------|
G-2-2-2-|
D-0-0-0-|

and then this part while phil starts singing

Wears 10 crowns, dragons heads,southern are the sons, lords unmatched

verse riff x4 (last time without the two open low D )
D---------------------|---------------------|
A---------------------|---------------------|
F---------------------|---------------------|
C---------------------|---------------------|
G-7-/-8--5-/-6--2-----|-5-/-6--3-/-4--2-----|
D-5-/-6--3-/-4--0-0-0-|-3-/-4--1-/-2--0-0-0-|

Their eyes don’t look right,
D-----------------|-----------------|
A-----------------|-----------------|
F-----------------|-----------------|
C-----------------|-----------------|
G-5-/-6--3-/-4--2-|-5-/-6--3-/-4--2-|
D-3-/-4--1-/-2--0-|-3-/-4--1-/-2--0-|

should they be trusted now
D-----------------|-----------------|-------|
A-----------------|-----------------|-------|
F-----------------|-----------------|-------|
C-----------------|-----------------|-------|
G-5-/-6--3-/-4--2-|-5-/-6--3-/-4--2-|-2-2-2-|
D-3-/-4--1-/-2--0-|-3-/-4--1-/-2--0-|-0-0-0-|
                                    PM.....

verse riff again
D---------------------|---------------------|
A---------------------|---------------------|
F---------------------|---------------------|
C---------------------|---------------------|
G-7-/-8--5-/-6--2-----|-5-/-6--3-/-4--2-----|
D-5-/-6--3-/-4--0-0-0-|-3-/-4--1-/-2--0-0-0-|

D---------------------|---------------------|
A---------------------|---------------------|
F---------------------|---------------------|
C---------------------|---------------------|
G-7-/-8--5-/-6--2-----|-5-/-6--3-/-4--2-----|
D-5-/-6--3-/-4--0-0-0-|-3-/-4--1-/-2--0-----|

Every fucking year it stays the same
D------------------------|-------------------------------|
A------------------------|-------------------------------|
F------------------------|-------------------------------|
C------------------------|-------------------------------|
G-9-/-10-8-/-9--7-/-8----|-6-/-7--5-/-6--4-/-5-----3-/-4-|
D-7-/-8--6-/-7--5-/-6--0-|-4-/-5--3-/-4--2-/-3--0--1-/-2-|

D-----------------|-----------------------------|
A-----------------|-----------------------------|
F-----------------|-----------------------------|
C-----------------|-----------------------------|
G-2-2-2-2-2-2-2-2-|-3-3-2--3-3-2--3-3-2--3-3-2--|
D-0-0-0-0-0-0-0-0-|-1-1-0--1-1-0--1-1-0--1-1-0--|

we'll grind that axe for a long time
D-----------------|
A-----------------|
F-----------------|
C-----------------|
G-2-2-22-2-22-2-2-|
D-0-0-00-0-00-0-0-|

D-----------------|-----------------|-------|
A-----------------|-----------------|-------|
F-----------------|-----------------|-------|
C-----------------|-----------------|-------|
G-5-/-6--3-/-4--2-|-5-/-6--3-/-4--2-|-2-2-2-|
D-3-/-4--1-/-2--0-|-3-/-4--1-/-2--0-|-0-0-0-|

and i fuckin say gain , we'll grind that axe for a long time
D---------------------------------------|
A---------------------------------------|
F---------------------------------------|
C---------------------------------------|
G-3-3-6-5-4-3-3-3-3-6-5-2-2-22-2-22-2-2-|
D-1-1-4-3-2-1-1-1-1-4-3-0-0-00-0-00-0-0-|

The next part you need to bend the notes at different strings up exactly at the same time

The smell in the air is chicken shit
D------------------------------------------|
A------------------------------------------|
F------------------------------------------|
C------------------------------------------|
G-10b--10-----13\12--10b--10---- 10/13--12-|
D-8b---8---0--11\10--8b---8---0--8/10---10-|

D------------------------------------------|
A------------------------------------------|
F------------------------------------------|
C------------------------------------------|
G-7b---7------10\9---7b---7------7/10--9---|
D-5b---5---0---8\7---5b---5---0--5/8---7---|

D----------------------------------------|
A----------------------------------------|
F----------------------------------------|
C----------------------------------------|
G-10--10-----13\12--10--10---- 10/13--12-|
D-8---8---0--11\10--8---8---0--8/10---10-|

D-----------------------------|
A-----------------------------|
F-----------------------------|
C-----------------------------|
G-2---------------------------|
D-0-0-0-0-0-0-0-0-0-0-0-0-0-0-|


D------------------------|-------------------------------|
A------------------------|-------------------------------|
F------------------------|-------------------------------|
C------------------------|-------------------------------|
G-9-/-10-8-/-9--7-/-8----|-6-/-7--5-/-6--4-/-5-----3-/-4-|
D-7-/-8--6-/-7--5-/-6--0-|-4-/-5--3-/-4--2-/-3--0--1-/-2-|

D-----------------|-----------------------------|
A-----------------|-----------------------------|
F-----------------|-----------------------------|
C-----------------|-----------------------------|
G-2-2-2-2-2-2-2-2-|-3-3-2--3-3-2--3-3-2--3-3-2--|
D-0-0-0-0-0-0-0-0-|-1-1-0--1-1-0--1-1-0--1-1-0--|

HELLYEAH thats it ,now if you have any comments or corrections although i think there 
any ,feel free to post it , keep it Metal \m/.
Dimebag always in our hearts.

            
            
Suggest correction
Creating personal tab
Creating personal tab
You can edit any tab online and save it as your Personal.

You can edit, replace or remove any tab part or add personal notes – all changes will be seen only by you.

Personal tabs can be accessed anytime from any device, even offline.
Learn more »
comments
print report bad tab
1 comment total.
0 reply
xXxA7X~Fan07xXx 61 Jan 16, 2015 03:43 PM

Looks good to me

guest
You may want to rate the tab now too:
select rating
Wanna post a correction for this tab? Suggest correction