Oops, an error
Loading. Please wait.

Nicholas Cajun Stole The Declaration Of Pizzapendence tab

463 views 21 this week
no commentswrite comment
1 2 3 4 5
1 last vote to show rating
add to favorites
×
Save as Personal and add changes to this tab that will be seen only by you. Learn more ›
×
You can save this tab as Personal to edit and correct it or add notes. All changes will be seen only by you. Learn more »
launch autoscroll
font size
0
reset
how to read this tab
guitar tuner
edit
Autoscroll
slow
fast
+/-
esc
set tempo
stop
[Intro]
e|-------0----------0----------0-----------------0----------0-------------0--|
A|----0-----0-------0----------0--------------0-----0-------0-------------0--|
G|-4-----------4----9----------6-----------4-----------4----9-------------3--|
D|-0----------------0----------0-----------0----------------0-------------0--|
A|-5----------------9----------7-----------5----------------9-------------4--|
D|-5----------------9----------7-----------5----------------9-------------4--|
              "And Winter will always come around eventually"

[Verse]
            "But People like me don't take to it with ease so kindly"
e|-0---------------------------------0------------------------------------0--|
A|-0---------------------------------0------------------------------------0--|
G|-4---------------------------------9------------------------------------6--|
D|-0---------------------------------0------------------------------------0--|
A|-5---------------------------------9------------------------------------7--|
D|-5---------------------------------9------------------------------------7--|
              "It's far too cold for comfort and I think too much"
e|-0---------------------------------0------------------------------------0--|
A|-0---------------------------------0------------------------------------0--|
G|-4---------------------------------9------------------------------------3--|
D|-0---------------------------------0------------------------------------0--|
A|-5---------------------------------9------------------------------------4--|
D|-5---------------------------------9------------------------------------4--|
           "About the air that I breathe, About the air that I breathe"
e|-0---------------------------------0------------------------------------0--|
A|-0---------------------------------0------------------------------------0--|
G|-4---------------------------------9------------------------------------6--|
D|-0---------------------------------0------------------------------------0--|
A|-5---------------------------------9------------------------------------7--|
D|-5---------------------------------9------------------------------------7--|
            "About the air that I breathe, About the sword I unsheathe"
e|-0---------------------------------0------------------------------------0--|
A|-0---------------------------------0------------------------------------0--|
G|-4---------------------------------9------------------------------------3--|
D|-0---------------------------------0------------------------------------0--|
A|-5---------------------------------9------------------------------------4--|
D|-5---------------------------------9------------------------------------4--|
         "About the ground underneath that caves in when I try to stand"
e|-0---------------------------------0------------------------------------0--|
A|-0---------------------------------0------------------------------------0--|
G|-4---------------------------------9------------------------------------6--|
D|-0---------------------------------0------------------------------------0--|
A|-5---------------------------------9------------------------------------7--|
D|-5---------------------------------9------------------------------------7--|
            "When I don't have your hand, When there's no reprimand"
e|-0---------------------------------0------------------------------------0--|
A|-0---------------------------------0------------------------------------0--|
G|-4---------------------------------9------------------------------------6--|
D|-0---------------------------------0------------------------------------0--|
A|-5---------------------------------9------------------------------------7--|
D|-5---------------------------------9------------------------------------7--|

e|-0---------------------------------0------------------------------------0--|
A|-0---------------------------------0------------------------------------0--|
G|-4---------------------------------9------------------------------------6--|
D|-0---------------------------------0------------------------------------0--|
A|-5---------------------------------9------------------------------------7--|
D|-5---------------------------------9------------------------------------7--|

e|-0---------------------------------0----------------------------------0-0-0|
A|-0---------------------------------0----------------------------------0-0-0|
G|-4---------------------------------9----------------------------------6-6-6|
D|-0---------------------------------0----------------------------------0-0-0|
A|-5---------------------------------9----------------------------------7-7-7|
D|-5---------------------------------9----------------------------------7-7-7|

[Chorus]
                "And Winter will always come around eventually"
e|-0------------------------------------------------------------------------0|
A|-0------------------------------------------------------------------------0|
G|-9------------------------------------------------------------------------0|
D|-9------------------------------------------------------------------------5|
A|-9------------------------------------------------------------------------5|
D|-0------------------------------------------------------------------------5|
                "But People like me don't take to it with ease"
e|-0------------------------------------------------------------------------0|
A|-0------------------------------------------------------------------------0|
G|-0------------------------------------------------------------------------0|
D|-9------------------------------------------------------------------------7|
A|-9------------------------------------------------------------------------7|
D|-9------------------------------------------------------------------------7|
              "It's far too cold for comfort and i think too much"               
e|---------------------------------------------------------------------------|
A|---------------------------------------------------------------------------|
G|-9-------------------------------------------------------------------------|
D|-9-------------------------------------------------------------------------|
A|-9-------------------------------------------------------------------------|
D|-0-------------------------------------------------------------------------|
         "About the air that i breathe, About the air that i breathe"
e|-0------------------------0------------------------0----------------------0|
A|-0------------------------0------------------------0----------------------0|
G|-0------------------------0------------------------0----------------------0|
D|-5------------------------9------------------------5----------------------9|
A|-5------------------------9------------------------5----------------------9|
D|-5------------------------9------------------------5----------------------9|
         "About the air that i breathe, About the sword i unsteathe" 
e|-0---------------------------------0-------------------------------------0-|
A|-0---------------------------------0-------------------------------------0-|
G|-0---------------------------------0-------------------------------------9-|
D|-5---------------------------------9-------------------------------------9-|
A|-5---------------------------------9-------------------------------------9-|
D|-5---------------------------------9-------------------------------------0-|
          "the ground underneath that caves in when i try to stand"
e|-0------------------------------------------------------------------------0|
A|-0------------------------------------------------------------------------0|
G|-9------------------------------------------------------------------------0|
D|-9------------------------------------------------------------------------5|
A|-9------------------------------------------------------------------------5|
D|-0------------------------------------------------------------------------5|
                        "When I don't have your hand"
e|-0------------------------------------------------------------------------0|
A|-0------------------------------------------------------------------------0|
G|-0------------------------------------------------------------------------0|
D|-9------------------------------------------------------------------------7|
A|-9------------------------------------------------------------------------7|
D|-9------------------------------------------------------------------------7|

e|-0---------------------------0--0--0-0-0--0--0--0-0-0-0-0------------------|
A|-0---------------------------0--0--0-0-0--0--0--0-0-0-0-0------------------|
G|-9---------------------------0--0--0-0-0--0--0--0-0-0-0-0------------------|
D|-9---------------------------9--5--7-7-7--9--5--7-7-7-7-7------------------|
A|-9---------------------------9--5--7-7-7--9--5--7-7-7-7-7------------------|
D|-0---------------------------9--5--7-7-7--9--5--7-7-7-7-7------------------|

[Outro]
                       "When there's no reprimand" 
PM............................................................................
e|---------------------------------------------------------------------------|
A|---------------------------------------------------------------------------|
G|-4--------------------------------9---------------------------------------6|(x2)
D|-0--------------------------------0---------------------------------------0|
A|-5--------------------------------9---------------------------------------7|
D|-5--------------------------------9---------------------------------------7|
   
PM........................................................................
e|--------------------------------------------------------------------0-0-0-0|
A|--------------------------------------------------------------------0-0-0-0|
G|-4--------------------------------9---------------------------------6-6-6-6|
D|-0--------------------------------0---------------------------------0-0-0-0|
A|-5--------------------------------9---------------------------------7-7-7-7|
D|-5--------------------------------9---------------------------------7-7-7-7|


************************************

| PM  Palm mute

************************************

            
            
Suggest correction
Creating personal tab
Creating personal tab
You can edit any tab online and save it as your Personal.

You can edit, replace or remove any tab part or add personal notes – all changes will be seen only by you.

Personal tabs can be accessed anytime from any device, even offline.
Learn more »
Give kudos to tab author, rate the tab!
1 2 3 4 5
comments
print report bad tab
guest
You may want to rate the tab now too:
select rating
Wanna post a correction for this tab? Suggest correction