Oops, an error
Loading. Please wait.

Candy bass

version 1
version 1

Whole song

11,192 views 30 this week
no commentswrite comment
1 2 3 4 5
3 more votes to show rating
add to favorites
×
Save as Personal and add changes to this tab that will be seen only by you. Learn more ›
×
You can save this tab as Personal to edit and correct it or add notes. All changes will be seen only by you. Learn more »
launch autoscroll
font size
0
reset
guitar tuner
edit
Autoscroll
slow
fast
+/-
esc
set tempo
stop
Author
Difficulty
Verse

 “Evening on my tail”
G----------------------------------------------------------------|
D-0~-------------------------------------------------------------|
A----------------------------------------------------------------|
E----------------------------------------------------------------|

“Although not..”

G----------------------------------------------------------------|
D—---------------------------------------------------------------|
A---0---0-0020-----7-7757----5-9----5-3-5------------------------|
E-----0--------5-7---------3-----3---------5535------------------|

Chorus

“Darling I’ll..”

G----------------------------------------------------------------|
D---------------2---2----------0-4---------0---0-----------------|
A---0-5-0---------0----3353--0------2232-----0-------------------|
E---------0535---------------------------------------------------|



You'll probably find alot of mistakes and bits i left out any help or stuff i need to 
please e-mail me at oooo_limit_oooo@hotmail.co.uk

Thanks

            
            
Suggest correction
Creating personal tab
Creating personal tab
You can edit any tab online and save it as your Personal.

You can edit, replace or remove any tab part or add personal notes – all changes will be seen only by you.

Personal tabs can be accessed anytime from any device, even offline.
Learn more »
Give kudos to tab author, rate the tab!
1 2 3 4 5
comments
print report bad tab
guest
You may want to rate the tab now too:
select rating
Wanna post a correction for this tab? Suggest correction