Oops, an error
Loading. Please wait.

Pencil Full Of Lead bass

version 2
version 2

Whole song

4,951 views 6 this week
no commentswrite comment
1 2 3 4 5
x 5
add to favorites
×
Save as Personal and add changes to this tab that will be seen only by you. Learn more ›
×
You can save this tab as Personal to edit and correct it or add notes. All changes will be seen only by you. Learn more »
launch autoscroll
font size
0
reset
guitar tuner
edit
Autoscroll
slow
fast
+/-
esc
set tempo
stop
Author
Difficulty
Pencil Full Of Lead
Written and performed by Paolo Nutini this is the 3rd single
released form his Sunny Side Up album in 2009. Reached
Number 17 in UK charts. Original bassist possible Michael McDaid
Tab by bass50611. Although not exactly as original but very close
and fits very well. Any comments it is bass254@btinternet.com
Play as a VERY FAST walking bass line.

Intro:
G|-----4-5-4-4-------4---------------------------4-------------------|
D|--4-7-----7-----4-7--------------2-3-2-2----4-7--------------4-5-4-|
A|-5-------------5-----5-3-2-0--2-5-----5----5-----5--------4-7------|
E|-----------------------------3---------------------8-7-6-5---------|

G|-------------4-5------|
D|---4-----4-7----7-5-4-|
A|-7-----5--------------|
E|----------------------|

Verse Part 1:
G|-------------------------------4-5-7------------------------|
D|------4-5-7---------------5---5--------------------7----5---|
A|-5---5-------5---5-0-2-4----5---------5---5-3-2-0----7----5-|
E|---5-----------5------------------------5-------------------|

G|------------------|
D|---4-5-6-7-5-4----|
A|-5-------------7--|
E|------------------|

Verse Part 2:
G|-----4-5-4-4-------4---------------------------4-------------------|
D|--4-7-----7-----4-7--------------2-3-2-2----4-7--------------4-5-4-|
A|-5-------------5-----5-3-2-0--2-5-----5----5-----5--------4-7------|
E|-----------------------------3---------------------8-7-6-5---------|

G|-------------4-5------|
D|---4-----4-7----7-5-4-|
A|-7-----5--------------|
E|----------------------|

Solo 1: Repeat Verse Part 1:

Repeat Verse Part 2:

Solo 2:
G|----------------4-----------------4--------------------------|
D|-------------4-7---------------4-7---5-------5-3-2-0---------|
A|-5-3-2-0---5-------5-3-2-0---5---------7-5-7---------5-------|
E|-------------------------------------------------------7-5-7-|

G|---------------------------------------------|
D|---4-7-4---7-4------7-4--------4-5-6-7-5-4---|
A|-5-------------7-4------7-4---5------------7-|
E|---------------------------------------------|

Repeat Verse Part 1


Solo 3:
G|-----------------4------------------4--------------------------|
D|--------------4-7----------------4-7---5-------5-3-2-0---------|
A|-5-3-2-0---5--------5-3-2-0---5---------7-5-7----------5-------|
E|---------------------------------------------------------7-5-7-|
                                BASS SOLO
G|---------------------------------------------|
D|---4-7-4---7-4------7-4----------------------|
A|-5-------------7-4------7-4---5--------------|
E|-------------------------------2-3-4-5-3-2-0-|

Repeat Verse Part 1

Outro:
G|----------------------------------------------------------|
D|-7---5-------4-5-6-7-5-4----7---5-------4-5-6-7-5-4-------|
A|---7---5---5-------------7----7---5---5-------------7---5-|
E|----------------------------------------------------------|

            
            
Suggest correction
Creating personal tab
Creating personal tab
You can edit any tab online and save it as your Personal.

You can edit, replace or remove any tab part or add personal notes – all changes will be seen only by you.

Personal tabs can be accessed anytime from any device, even offline.
Learn more »
comments
print report bad tab
guest
You may want to rate the tab now too:
select rating
Wanna post a correction for this tab? Suggest correction