Oops, an error
Loading. Please wait.

These Streets tab

version 2
version 2

Whole song

7,766 views 1 this week
no commentswrite comment
1 2 3 4 5
2 more votes to show rating
add to favorites
×
Save as Personal and add changes to this tab that will be seen only by you. Learn more ›
×
You can save this tab as Personal to edit and correct it or add notes. All changes will be seen only by you. Learn more »
launch autoscroll
font size
0
reset
how to read this tab
guitar tuner
edit
Autoscroll
slow
fast
+/-
esc
set tempo
stop
e:---------------------------------------|
b:----33-333--33-333--00-000--22-222-----|
g:----22-222--22-222--00-000--22-222-----|
d:--0-00-0004-44-4440-00-0002-22-222-----|
a:---------------------------------------|
e:---------------------------------------|
Cross the border, into the big bad world
where it takes you 'bout an hour just to cross the road
just to stumble across another poor old soul
from the dreary old lanes to the high street madness
I fight with my brains to believe my eyes
and it's harder than you think to delay the sadness
that creeps up my spine and haunts me through the night


now that:


e:--------------------------------------------------------------------|
b:2-2-222-222-222-22-0000-000-000-002-2-222-222-222-22222222-2-2-2----|
g:3-3-333-333-333-33-0000-000-000-003-3-333-333-333-22222222-2-2-2----|
d:2-2-222-222-222-22-0000-000-000-002-2-222-222-222-22222222-2-2-2----|
a:--------------------------------------------------------------------|
e:--------------------------------------------------------------------|
life is good and the girls are gorgeous, suddenly the air smells much greener now,
and I'm wandering around with a half pack of cigarettes
searching for the change that I've lost somehow


e:---------------------------------------|
b:----33-333--33-333--00-000--22-222-----|
g:----22-222--22-222--00-000--22-222-----|
d:--0-00-0004-44-4440-00-0002-22-222-----|
a:---------------------------------------|
e:---------------------------------------|
these streets have too many names for me
I'm used to Glenfield Road and spending my time down in Orchy
I'll get used to this eventually I know, I know

where'd the days go when all we did was play
and the stress that we where under wasn't stress at all
just a run and a jump into a harmless fall
from walking by a high rise to a landmark square
you see millions of people with millions of cares
and I struggle to the train to make my way home
I look at the people as they sit there alone


e:--------------------------------------------------------------------|
b:2-2-222-222-222-22-0000-000-000-002-2-222-222-222-22222222-2-2-2----|
g:3-3-333-333-333-33-0000-000-000-003-3-333-333-333-22222222-2-2-2----|
d:2-2-222-222-222-22-0000-000-000-002-2-222-222-222-22222222-2-2-2----|
a:--------------------------------------------------------------------|
e:--------------------------------------------------------------------|
Life is good and the sun is shining, everybody floods to their ideal space
and the children all smile as the boats shuffle by them
trying to pretend that they've got some space


e:---------------------------------------|
b:----33-333--33-333--00-000--22-222-----|
g:----22-222--22-222--00-000--22-222-----|
d:--0-00-0004-44-4440-00-0002-22-222-----|
a:---------------------------------------|
e:---------------------------------------|
these streets have too many names for me
I'm used to Glenfield Road and spending my time down in Orchy
I'll get used to this eventually I know, I know
these streets have too many names for me
I'm used to Glenfield Road and spending my time down in Orchy
I'll get used to this eventually I know, I know


e:--------------------------------------------------------------------|
b:2-2-222-222-222-22-0000-000-000-002-2-222-222-222-22222222-2-2-2----|
g:3-3-333-333-333-33-0000-000-000-003-3-333-333-333-22222222-2-2-2----|
d:2-2-222-222-222-22-0000-000-000-002-2-222-222-222-22222222-2-2-2----|
a:--------------------------------------------------------------------|
e:--------------------------------------------------------------------|
life is good and the girls are gorgeous
suddenly the air smells much greener now
and I'm wandering around with a half pack of cigarettes
searching for the change that I've lost somehow


e:---------------------------------------|
b:----33-333--33-333--00-000--22-222-----|
g:----22-222--22-222--00-000--22-222-----|
d:--0-00-0004-44-4440-00-0002-22-222-----|
a:---------------------------------------|
e:---------------------------------------|
these streets have too many names for me
I'm used to Glenfield Road and spending my time down in Orchy
I'll get used to this eventually I know, I know
these streets have too many names for me
I'm used to Glenfield Road and spending my time down in Orchy
I'll get used to this eventually I know, I know
                                             D
I know, I know, ´cause you keep telling me so

            
            
Suggest correction
Creating personal tab
Creating personal tab
You can edit any tab online and save it as your Personal.

You can edit, replace or remove any tab part or add personal notes – all changes will be seen only by you.

Personal tabs can be accessed anytime from any device, even offline.
Learn more »
Give kudos to tab author, rate the tab!
1 2 3 4 5
comments
print report bad tab
guest
You may want to rate the tab now too:
select rating
Wanna post a correction for this tab? Suggest correction