Oops, an error
Loading. Please wait.

White Lies intro tab

27,207 views 21 this week
7 commentsread comments
1 2 3 4 5
x 23
add to favorites
×
Save as Personal and add changes to this tab that will be seen only by you. Learn more ›
×
You can save this tab as Personal to edit and correct it or add notes. All changes will be seen only by you. Learn more »
launch autoscroll
font size
0
reset
how to read this tab
guitar tuner
edit
Autoscroll
slow
fast
+/-
esc
set tempo
stop
I couldn't find this ANYWHERE on the internet without having to buy a tablature book for 
whole album... So I had to work it out myself... I'm pretty sure it's right! But it 
good anyway.

E|------2-----2-----2-----2-----2-----7-----7-----7-----7-----7-----| x2
B|----5-----5-----5-----5-----5---------0-----0-----0-----0-----0---|
G|------------------------------------------------------------------|
D|--0-----0-----0-----0-----0-----0-0-----0-----0-----0-----0-----0-|
A|------------------------------------------------------------------|
E|------------------------------------------------------------------|

E|------2-----2-----2-----2-----2-----7-----7-----7-----7-----7-----|
B|----5-----5-----5-----5-----5---------0-----0-----0-----0-----0---|
G|------------------------------------------------------------------|
D|--0-----0-----0-----0-----0-----0-0-----0-----0-----0-----0-----0-|
A|------------------------------------------------------------------|
E|------------------------------------------------------------------|
There's a heart...         On the line

E|------2-----2-----2-----2-----2-----7-----7-----7-----7-----7-----|
B|----5-----5-----5-----5-----5---------0-----0-----0-----0-----0---|
G|------------------------------------------------------------------|
D|--0-----0-----0-----0-----0-----0-0-----0-----0-----0-----0-----0-|
A|------------------------------------------------------------------|
E|------------------------------------------------------------------|
And it rests...             With your eyes

E|------2-----2-----2-----2-----2-----0-----0-----0-----0-----0-----|
B|----5-----5-----5-----5-----5---------2-----2-----2-----2-----2---|
G|------------------------------------------------------------------|
D|--0-----0-----0-----0-----0-----0-0-----0-----0-----0-----0-----0-|
A|------------------------------------------------------------------|
E|------------------------------------------------------------------|
Please don't fade, and please don't cry

E|----1-----1-----1---0-----0-----0-----2-----2-----2-----2-----2---|
B|------0-----0---------0-----0-------5-----5-----5-----5-----5-----|
G|------------------------------------------------------------------|
D|--0-----0-----0---0-----0-----0---0-----0-----0-----0-----0-----0-|
A|------------------------------------------------------------------|
E|------------------------------------------------------------------|
'Cause it's all...  White...        Lies...

The rest of the song pretty much carrys on with the same chords, whatever they are... So 
still sounds good if you play all that over it :D

Pleeeeease give me feedback, this is my first tab,
Lou xX xXx Xx - krazy_lou@hotmail.co.uk

            
            
Suggest correction
Creating personal tab
Creating personal tab
You can edit any tab online and save it as your Personal.

You can edit, replace or remove any tab part or add personal notes – all changes will be seen only by you.

Personal tabs can be accessed anytime from any device, even offline.
Learn more »
comments
print report bad tab
7 comments total. Showing first comments.
0 reply
bJoelFan13 226 Feb 11, 2007 06:49 AM

wow...great job

0 reply
Chuck Wild 50 Mar 01, 2007 07:05 PM

bravo!

+7 reply
mattdot666 295 Oct 28, 2007 06:21 AM

it's easier just moving from fret 7 to 7, rather than down to 2 and 5, but really good.

E|-0---0---0---0---0------7---7---7---7---7----| x2
B|--7---7---7---7---7-------0---0---0---0---0--|
G|---------------------------------------------|
D|0---0---0---0---0---0-0--0---0---0---0-----0-|
A|---------------------------------------------|
E|---------------------------------------------|

Paolo For Life

guest
Wanna post a correction for this tab? Suggest correction