Oops, an error
Loading. Please wait.

Born For Greatness tab

version 2
version 2

Whole song

  • Only one accurate. I mixed tabs and chords yeah. b... Show more
391 views 42 this week
no commentswrite comment
1 2 3 4 5
3 more votes to show rating
add to favorites
×
Save as Personal and add changes to this tab that will be seen only by you. Learn more ›
×
You can save this tab as Personal to edit and correct it or add notes. All changes will be seen only by you. Learn more »
launch autoscroll
font size
0
reset
how to read this tab
guitar tuner
edit
Autoscroll
slow
fast
+/-
esc
set tempo
stop
About this tab version
Only one accurate. I mixed tabs and chords yeah. but only because people want it like this. it works for all. You can play this Song in Drop-D as well. Was this info helpful? Yes No
[Intro]
Am C Gm Dm
Am C Gm F

[Verse]
Am            
I am a man at war
Am
And I am fighting for
Am
All of the broken people
Am
All of the people thrown overboard
Am
They always tried to shame us
Am
But they don’t speak the language
E-5
No we’re not nameless, we’re not faceless
E-5
We were born for greatness
Am
Oh, somebody sound the alarm
Am
Oh, a fire was set in the dark
Am 
Oh, It’s time that you know
E-5
No we’re not nameless, we’re not faceless
                 
We were born for greatness

[Pre-Chorus]
              Am           C
It doesn’t matter if the world has gone mad
      Dm                  F
If we just hold on, if we just hold on yeah
Am                         C
The sky is falling and the world has gone mad
        D                          F 
And we sing our songs, and we just hold on yeah
Am                    C 
So if you’re running, stop running
D-5            F-5
One life, one chance, start living
Am                     C
Sing it louder just to let the world know
D-5
No we’re not nameless, we’re not faceless

We were born for greatness

[Chorus]
e|---------------------------------------------------------------------------|
B|---------------------------------------------------------------------------|
G|---------------------------------------------------------------------------|
D|-------/7---/7-------------------------------------------------------------|
A|---------------3--------3--3h5-5-5-5--5p3-3-----3--------------------------|
E|---5-----------------------------------------------3---3-------------------|

e|---------------------------------------------------------------------------|
B|---------------------------------------------------------------------------|
G|---------------------------------------------------------------------------|
D|-------/7---/7-------------------------------------------------------------|
A|---------------3--------------------------5----3---------------------------|
E|---5------------------3--5---3---5p3-3---------------3---------------------|

e|---------------------------------------------------------------------------|
B|---------------------------------------------------------------------------|
G|---------------------------------------------------------------------------|
D|-------/7---/7-------------------------------------------------------------|
A|---------------3--------3--3h5-5-5-5--5p3-3-----3--------------------------|
E|---5-----------------------------------------------3---3-------------------|

e|---------------------------------------------------------------------------|
B|---------------------------------------------------------------------------|
G|---------------------------------------------------------------------------|
D|-------/7---/7-------------------------------------------------------------|
A|---------------3--------------------------5----3---------------------------|
E|---5------------------3--5---3---5p3-3---------------3---------------------|

Am

[Verse]
Am                 
They say that I’m reckless
Am
Because I’m relentless
Am
They spit on my face, and curse on my name
Am
They’re taking my life in vengeance
Am
Yeah you can try and blame us
Am
And try to take what’s sacred
    E-5
But we’re not nameless, we’re not faceless
Am
We were born for greatness
Am
Oh, somebody sound the alarm
Am
Oh, a fire was set in the dark
Am
Oh, It’s time that you know
E-5
No we’re not nameless, we’re not faceless
        Am
We were born for greatness

[Pre-Chorus]
              Am           C
It doesn’t matter if the world has gone mad
      Dm                  F
If we just hold on, if we just hold on yeah
Am                         C
The sky is falling and the world has gone mad
D                             F 
And we sing our songs, and we just hold on yeah
Am                    C 
So if you’re running, stop running
D-5            F-5
One life, one chance, start living
Am                     C
Sing it louder just to let the world know
D-5
No we’re not nameless, we’re not faceless

We were born for greatness

[Chorus]
e|---------------------------------------------------------------------------|
B|---------------------------------------------------------------------------|
G|---------------------------------------------------------------------------|
D|-------/7---/7-------------------------------------------------------------|
A|---------------3--------3--3h5-5-5-5--5p3-3-----3--------------------------|
E|---5-----------------------------------------------3---3-------------------|

e|---------------------------------------------------------------------------|
B|---------------------------------------------------------------------------|
G|---------------------------------------------------------------------------|
D|-------/7---/7-------------------------------------------------------------|
A|---------------3--------------------------5----3---------------------------|
E|---5------------------3--5---3---5p3-3---------------3---------------------|

e|---------------------------------------------------------------------------|
B|---------------------------------------------------------------------------|
G|---------------------------------------------------------------------------|
D|-------/7---/7-------------------------------------------------------------|
A|---------------3--------3--3h5-5-5-5--5p3-3-----3--------------------------|
E|---5-----------------------------------------------3---3-------------------|

e|---------------------------------------------------------------------------|
B|---------------------------------------------------------------------------|
G|---------------------------------------------------------------------------|
D|-------/7---/7-------------------------------------------------------------|
A|---------------3--------------------------5----3---------------------------|
E|---5------------------3--5---3---5p3-3---------------3---------------------|

[Bridge]
Am         C
           Somebody sound the alarm
D-5        F
Am         C
           It's time that you know
D          F

[Pre-chorus]
Am                                  C
It doesn’t matter if the world has gone mad
      Dm                  F       
If we just hold on, if we just hold on yeah
Am                          C              
Sing it louder just to let the world know

D-5

No we’re not nameless, we’re not faceless

We were born for greatness

[Chorus] (x2)
e|---------------------------------------------------------------------------|
B|---------------------------------------------------------------------------|
G|---------------------------------------------------------------------------|
D|-------/7---/7-------------------------------------------------------------|
A|---------------3--------3--3h5-5-5-5--5p3-3-----3--------------------------|
E|---5-----------------------------------------------3---3-------------------|

e|---------------------------------------------------------------------------|
B|---------------------------------------------------------------------------|
G|---------------------------------------------------------------------------|
D|-------/7---/7-------------------------------------------------------------|
A|---------------3--------------------------5----3---------------------------|     
E|---5------------------3--5---3---5p3-3---------------3---------------------|

e|---------------------------------------------------------------------------|
B|---------------------------------------------------------------------------|
G|---------------------------------------------------------------------------|
D|-------/7---/7-------------------------------------------------------------|
A|---------------3--------3--3h5-5-5-5--5p3-3-----3--------------------------|
E|---5-----------------------------------------------3---3-------------------|

e|---------------------------------------------------------------------------|
B|---------------------------------------------------------------------------|
G|---------------------------------------------------------------------------|
D|-------/7---/7-------------------------------------------------------------|
A|---------------3--------------------------5----3---------------------------|
E|---5------------------3--5---3---5p3-3---------------3---------------------|


--You can also play this song in Drop-D, but then chords are "harder" to play for most people.--


************************************

| h   Hammer-on
| p   Pull-off
| /   Slide up

************************************

            
            
Suggest correction
Creating personal tab
Creating personal tab
You can edit any tab online and save it as your Personal.

You can edit, replace or remove any tab part or add personal notes – all changes will be seen only by you.

Personal tabs can be accessed anytime from any device, even offline.
Learn more »
Give kudos to tab author, rate the tab!
1 2 3 4 5
comments
print report bad tab
guest
You may want to rate the tab now too:
select rating
Wanna post a correction for this tab? Suggest correction