Oops, an error
Loading. Please wait.

Do Or Die bass

version 1
version 1

Whole song

1,083 views 1 this week
3 commentsread comments
1 2 3 4 5
x 4
add to favorites
×
Save as Personal and add changes to this tab that will be seen only by you. Learn more ›
×
You can save this tab as Personal to edit and correct it or add notes. All changes will be seen only by you. Learn more »
launch autoscroll
font size
0
reset
guitar tuner
edit
Autoscroll
slow
fast
+/-
esc
set tempo
stop
Author
#----------------------------------PLEASE NOTE---------------------------------#
#This file is the author's own work and represents their interpretation of the #
#song. You may only use this file for private study, scholarship, or research. #
#------------------------------------------------------------------------------#


This is a novice/intermediate song just because it is a little fast

Regular tuning EBGD

Song: Do or Die
Artist: Papa Roach
Album: Getting Away With Murder
Tabbed By: Stealthbass


(Play 10 times)				
|----------------|----------------|----------------|
|----------------|----------------|----------------|
|0-2-4-4-4-4-4-4-|2-2-2-2-2-2-2-2-|2-2-2-2-2-2-2-2-|
|----------------|----------------|----------------|
 1 & 2 & 3 & 4 &  1 & 2 & 3 & 4 &  1 & 2 & 3 & 4 &


(Play 6 times)
|----------------|
|----------------|
|0-2-4-4-4-4-4-4-|
|----------------|
 1 & 2 & 3 & 4 &


|----------------|----------------|
|----------------|----------------|
|2letitringmanallthewaykeepgoingyo|
|----------------|----------------|
 1 & 2 & 3 & 4 &  1 & 2 & 3 & 4 &


|----------------|----------------|
|----------------|----------------|
|0-0-0-0-0-0-0-0-|2-2-2-2-2-2-2-2-|
|----------------|----------------|
 1 & 2 & 3 & 4 &  1 & 2 & 3 & 4 &


				___________
					   |
| |----------------|----------------|	   |
|.|2-2-2-2-2-2-2-2-|4-4-4-4-4-4-4-4-|	   |
|.|----------------|----------------|      |
| |----------------|----------------|      |
 1 & 2 & 3 & 4 &  1 & 2 & 3 & 4 &          |
					   |---Play 2 times
|----------------|----------------| |	   |
|7—7-7-7-7-7-7-7-|4-4-4-4-4-4-4-4-|.|	   |
|----------------|----------------|.|	   |
|----------------|----------------| |	   |
 1 & 2 & 3 & 4 &  1 & 2 & 3 & 4 &	   |
				___________|


(Play 7 times)		(Play 2 times)			
|----------------|----------------|
|----------------|----------------|
|0-2-4-4-4-4-4-4-|2-2-2-2-2-2-2-2-|
|----------------|----------------|
 1 & 2 & 3 & 4 &  1 & 2 & 3 & 4 &


(Play 6 times)		(Play 2 times)			
|----------------|----------------|
|----------------|----------------|
|0-2-4-4-4-4-4-4-|2---------------|
|----------------|----------------|
 1 & 2 & 3 & 4 &  1 & 2 & 3 & 4 &



|----------------|----------------|
|----------------|----------------|
|0-0-0-0-0-0-0-0-|2-2-2-2-2-2-2-2-|  
|----------------|----------------|
 1 & 2 & 3 & 4 &  1 & 2 & 3 & 4 &

				___________
					   |
| |----------------|----------------|	   |
|.|2-2-2-2-2-2-2-2-|4-4-4-4-4-4-4-4-|	   |
|.|----------------|----------------|      |
| |----------------|----------------|      |
 1 & 2 & 3 & 4 &  1 & 2 & 3 & 4 &          |
					   |---Play 4 times
|----------------|----------------| |	   |
|7—7-7-7-7-7-7-7-|4-4-4-4-4-4-4-4-|.|	   |
|----------------|----------------|.|	   |
|----------------|----------------| |	   |
 1 & 2 & 3 & 4 &  1 & 2 & 3 & 4 &	   |
				___________|

(Play 8 times)
|----------------|
|----2-0---------|
|0-2-----4-2--02-|
|----------------|
 1 & 2 & 3 & 4 &


(Play 8 times)
|----------------|----------------|----------------|
|----------------|----------------|----------------|
|0-2-4-4-4-4-4-4-|2letitringmanallthewaykeepgoingyo|
|----------------|----------------|----------------|
 1 & 2 & 3 & 4 &  1 & 2 & 3 & 4 &  1 & 2 & 3 & 4 &


|----------------|----------------|
|----------------|----------------|
|0-0-0-0-0-0-0-0-|2-2-2-2-2-2-2-2-|
|----------------|----------------|
 1 & 2 & 3 & 4 &  1 & 2 & 3 & 4 &


				___________
			 		   |
| |----------------|----------------|	   |
|.|2-2-2-2-2-2-2-2-|4-4-4-4-4-4-4-4-|	   |
|.|----------------|----------------|      |
| |----------------|----------------|      |
 1 & 2 & 3 & 4 &  1 & 2 & 3 & 4 &	   |
					   |---Play 6 times
|----------------|----------------| |	   |
|7—7-7-7-7-7-7-7-|4-4-4-4-4-4-4-4-|.|	   |
|----------------|----------------|.|	   |
|----------------|----------------| |	   |
 1 & 2 & 3 & 4 &  1 & 2 & 3 & 4 &	   |
				___________|


(Play 8 times)
|----------------|
|----------------|
|0-2-4-4-4-4-4-4-|
|----------------|
 1 & 2 & 3 & 4 &


Thank you!!

Rate!!

Comment on my tab!!

Talk to me, Stealthbass, if you have any questions 




            
            
Suggest correction
Creating personal tab
Creating personal tab
You can edit any tab online and save it as your Personal.

You can edit, replace or remove any tab part or add personal notes – all changes will be seen only by you.

Personal tabs can be accessed anytime from any device, even offline.
Learn more »
comments
print report bad tab
3 comments total.
0 reply
SOADsROADIE 10 Sep 17, 2006 04:48 PM

Seems pretty good, cant wait to try it out, Thanks!

0 reply
thunderhawk 535 Nov 28, 2009 05:17 PM

wtf? this is messed up. this is not at all right.... like i think some how title got mixed up with another one of ur tabs

0 reply
Warrior Bassist 10 Jan 12, 2011 12:38 PM

Not even close man...I can tell by just listening to the song. keep trying though!

guest
You may want to rate the tab now too:
select rating
Wanna post a correction for this tab? Suggest correction