Oops, an error
Loading. Please wait.

Fire tab

version 2
version 2

Whole song

Interactive

5,885 views 1 this week
5 commentsread comments
1 2 3 4 5
x 3
add to favorites
×
Save as Personal and add changes to this tab that will be seen only by you. Learn more ›
×
You can save this tab as Personal to edit and correct it or add notes. All changes will be seen only by you. Learn more »
launch autoscroll
font size
0
reset
how to read this tab
guitar tuner
edit
Autoscroll
slow
fast
+/-
esc
set tempo
stop
---------------------------------------------------------------------------
			     The Fire – Papa Roach
---------------------------------------------------------------------------
Tabbed by: Nick Kupka 
Email: nick.kupka@gmail.com

Tuning: Dropped D Tuning

Intro||
e|--------------||
B|-------7--8---||
G|-6h7-6-7--7---|| repeat 4 times
D|-------9--9---||
A|--------------||
D|--------------||

Verse 1
e|--------------------|
B|---7--7----8--8-----|
G|--7-7--7--7-7--7----| repeat 8 times
D|-9---9---9---9------|
A|--------------------|
D|--------------------|

Pre Chorus
e|------------------|
B|------------------|
G|------------------|
D|----5-0-5---------| repeat 4 times
A|--9-5-0-----------|
D|-9--5-0-----------|

Chorus
e|----------------|
B|----------------|
G|----------------|
D|-5--0--2--5-7---| 
A|-5--0--2--5-7---|
D|-5--0--2--5-7---|

Verse 2					Bridge -> Verse 2 to Chorus
e|-------------------|			E----------|-----|
B|---7--7-----8--8---|			B-7-7--8-8-|-7-7—|
G|--7-7--7---7-7--7--| repeat 8 times 	G-7-7--7-7-|-7-7-|
D|-9---9----9---9----|			D----------|-----|
A|-------------------|			A----------|-----|
D|-------------------|			D----------|-----|

Pre Chorus
e|------------------|
B|------------------|
G|------------------|
D|----5-0-5---------| repeat 4 times
A|--9-5-0-----------|
D|-9--5-0-----------|

Chorus
e|----------------|
B|----------------|
G|----------------|
D|-5--0--2--5-7---| 
A|-5--0--2--5-7---|
D|-5--0--2--5-7---|
Pre Chorus
e|------------------|
B|------------------|
G|------------------|
D|----5-0-5---------| repeat 2 times
A|--9-5-0-----------|
D|-9--5-0-----------|

Chorus
e|----------------|
B|----------------|
G|----------------|
D|-5--0--2--5-7---| 
A|-5--0--2--5-7---|
D|-5--0--2--5-7---|

Pre Chorus
e|------------------|
B|------------------|
G|------------------|
D|----5-0-5---------| repeat 2 time
A|--9-5-0-----------|
D|-9--5-0-----------|

Solo 
e|------------------------------------------------------------------------|
B|-----------------------------------------7-8-7-----7-8-7----7-8-7-------|
G|-----------------------------------------------7-9-------7--------7-9-9~|
D|-9--7-9-11--9-11-12--11-12-14--14~>14-12-9-----------------9------------|
A|------------------------------------------------------------------------|
D|------------------------------------------------------------------------|

Pre Chorus
e|------------------|				
B|------------------|				
G|------------------|				
D|----5-0-5---------| repeat 4 times		
A|--9-5-0-----------|
D|-9--5-0-----------|

Chorus
e|----------------|
B|----------------|
G|----------------|
D|-5--0--2--5-7---| 
A|-5--0--2--5-7---|
D|-5--0--2--5-7---|

Pre Chorus
e|------------------|				
B|------------------|				
G|------------------|				
D|----5-0-5---------| repeat 4 times		
A|--9-5-0-----------|
D|-9--5-0-----------|

Chorus
e|----------------|
B|----------------|
G|----------------|
D|-5--0--2--5-7---| 
A|-5--0--2--5-7---|
D|-5--0--2--5-7---|
Pre Chorus
e|------------------|			-------|
B|------------------|			-------|
G|------------------|			-------|
D|----5-0-5---------| repeat 4 times	-9~----| Outro 
A|--9-5-0-----------|			-9~----|
D|-9--5-0-----------|			-9~----|

            
            
Suggest correction
Creating personal tab
Creating personal tab
You can edit any tab online and save it as your Personal.

You can edit, replace or remove any tab part or add personal notes – all changes will be seen only by you.

Personal tabs can be accessed anytime from any device, even offline.
Learn more »
Give kudos to tab author, rate the tab!
1 2 3 4 5
comments
print report bad tab
5 comments total. Showing first comments.
0 reply
Sound Mind 536 Jun 24, 2007 10:42 AM

awesome

0 reply
TheoryWorker 31 Jun 25, 2007 09:20 AM

thanks man...

0 reply
cooldudues99 170 Jul 30, 2009 04:44 AM

great tab just a few things for you to put in the rythm on the solo, the slight change in picking the verse and the one note miss out in the introduction

e|--------------||
B|--------7--8---||
G|-6h7p6--7--7---|| repeat 4 times
D|------7--9--9---||
A|---------------||
D|---------------||

guest
You may want to rate the tab now too:
select rating
Wanna post a correction for this tab? Suggest correction