Oops, an error
Loading. Please wait.
We have an official I Almost Told You That I Loved You tab made by UG professional guitarists. Check out the tab »
×
19,646 views 3 this week
7 commentsread comments
1 2 3 4 5
x 17
add to favorites
×
Save as Personal and add changes to this tab that will be seen only by you. Learn more ›
×
You can save this tab as Personal to edit and correct it or add notes. All changes will be seen only by you. Learn more »
launch autoscroll
font size
0
reset
how to read this tab
guitar tuner
edit
Autoscroll
slow
fast
+/-
esc
set tempo
stop
Author
guitar cover of me playing it with this tab! :)

http://www.youtube.com/watch?v=4ZTqlQOrqZg


h= Hammer On
*=Palm mute
p=Pull of
S=slide
//=slide back
b-Bend

The intro:

Guitar 1
e|------------------------------------------------------|
B|------------------------------------------------------|
G|------------------------------------------------------|x6
D|--------7-5---5---------8h9p8----7h8p7----------------|
A|------------7----7--s10-------10-------10//-----------|
D|------------------------------------------------------|


Guitar 2
e|---------------------|
B|---------------------|
G|---------------------|    x2
D|----2--0-2--0--2-----|
A|----2--0-2--0--2-----|
D|----2--0-2--0--2-----|

Verse:

Guitar 1

e|-----------------------------------------------|
B|-----------------------------------------------|
G|-----------------------------------------------|
D|--2-x-x------2-x-x------2-x-x-----2-x-x--------|
A|--2-x-x--7b--2-x-x-7b--2-x-x--7-b-2-x-x--8b----|
D|--2-x-x------2-x-x------2-x-x-----2-x-x--------|

                                                        X2


e|--------------------------------------------------|
B|--------------------------------------------------|
G|-----------------------------------------10-------|
D|--0-x-x------0-x-x------0-x-x------0-x-x--x-------|
A|--0-x-x--5b--0-x-x-5b---0-x-x--7b--0-x-x--8-------|
D|--0-x-x------0-x-x------0-x-x------0-x-x----------|

Last time:


e|------------------------------------------------- --|
B|----------------------------------------------------|
G|-----------------------------------------10--10-----|
D|--0-x-x------0-x-x------0-x-x------0-x-x--x--x------|
A|--0-x-x--5b--0-x-x-5b---0-x-x--7b--0-x-x--8--8------|
D|--0-x-x------0-x-x------0-x-x------0-x-x------------|


chorus:

Part A
e|-----------------------------------------|
B|-----------------------------------------|
G|------------5-5-5-5----------------------|
D|---2-2-2-2--5-5-5-5---5-5-5-5---1-1-1-1--|
A|---2-2-2-2--3-3-3-3---5-5-5-5---1-1-1-1--|
D|---2-2-2-2------------5-5-5-5---1-1-1-1--|
                                                             X2
Part B
e|----------------------------------------|
B|----------------------------------------|
G|------------5-5-5-5---------------------|
D|---2-2-2-2--5-5-5-5---5-5-5-5---0-1-----|                 0 1
A|---2-2-2-2--3-3-3-3---5-5-5-5---0-1-----|                 0 1
D|---2-2-2-2------------5-5-5-5---0-1-----| When You do the 0 1 Repeat Part 
                                            of the chorus.
End Chorus With:

e|-----------|
B|-----------|
G|-----------|
D|--0-1-2----|
A|--0-1-2----|
D|--0-1-2----|


Bass Line..

Verse:


e|-----------------------------------------------|
B|-----------------------------------------------|
G|-----------------------------------------------|
D|--2-x-x------2-x-x------2-x-x-----2-x-x--------|
A|--2-x-x--7b--2-x-x-7b--2-x-x--7b -2-x-x--8b----|
D|--2-x-x------2-x-x------2-x-x-----2-x-x--------|

                                                        X1


e|--------------------------------------------------|
B|--------------------------------------------------|
G|-----------------------------------------10-------|
D|--0-x-x------0-x-x------0-x-x------0-x-x--x-------|
D|--0-x-x------0-x-x------0-x-x------0-x-x----------|


Chorus Again!!


chorus:

Part A
e|-----------------------------------------|
B|-----------------------------------------|
G|------------5-5-5-5----------------------|
D|---2-2-2-2--5-5-5-5---5-5-5-5---1-1-1-1--|
A|---2-2-2-2--3-3-3-3---5-5-5-5---1-1-1-1--|
D|---2-2-2-2------------5-5-5-5---1-1-1-1--|

Part B
e|----------------------------------------|
B|----------------------------------------|
G|------------5-5-5-5---------------------|
D|---2-2-2-2--5-5-5-5---5-5-5-5---0-1-----|                  0 1
A|---2-2-2-2--3-3-3-3---5-5-5-5---0-1-----|                  0 1
D|---2-2-2-2------------5-5-5-5---0-1-----| after You do the 0 1
                                            start bridge

The Bridge:

e|-------------|
B|-------------|
G|-------------|
D|--2-2-2-2----|
A|--2-2-2-2----|   x4
D|--2-2-2-2----|

Then

e|------|
B|------|
G|-10---|
D|-x----
A|-8----|
D|------|
                                              X2!
e|-------------|
B|-------------|
G|-------------|
D|--7-7-7-7----|   x4
A|--5-5-5-5----|
D|--0-0-0-0----|

Then

e|------|
B|------|
G|-10---|
D|-x----
A|-8----|
D|------|

Last Time OF The Bridge

e|-------------|
B|-------------|
G|-------------|
D|--2-2-2-2----|   x4
A|--2-2-2-2----|
D|--2-2-2-2----|

Then

e|------|
B|------|
G|-10---|
D|-x----
A|-8----|
D|------|

e|-------------|
B|-------------|
G|-------------|
D|--7-7-7-7----|   x2
A|--5-5-5-5----|
D|--0-0-0-0----|

Then

e|--------------------------|
B|--------------------------|
G|-------------10--x--10----|
D|--------------x--x---x----|
A|--------------8--x---8----|
D|--0-0-0-0-----------------|
    *******

The Repeat Intro

Repeat Chorus

And End With

e|------------|
B|------------|
G|------------|
D|--0-1-2-----|
A|--0-1-2-----|
D|--0-1-2--//-|


Enjoy. I Hope It's correct if something missing please Note me.

            
            
Suggest correction
Creating personal tab
Creating personal tab
You can edit any tab online and save it as your Personal.

You can edit, replace or remove any tab part or add personal notes – all changes will be seen only by you.

Personal tabs can be accessed anytime from any device, even offline.
Learn more »
comments
print report bad tab
7 comments total. Showing first comments.
0 reply
fan_of_rock 10 Aug 05, 2009 10:56 AM

the guitar intro is the best out of the three posted...havent played the rest yet.

0 reply
KilledByAGuitar 31 Aug 17, 2009 04:56 AM

I think it's pretty good ^^
Can't find any changes.
5*

0 reply
Airbourne Rock 74 Oct 23, 2009 08:21 AM

Great tab, all of it is accurate.

guest
You may want to rate the tab now too:
select rating
Wanna post a correction for this tab? Suggest correction