Oops, an error
Loading. Please wait.

I Devise My Own Demise bass

version 1
version 1

Whole song

Interactive

1,793 views 3 this week
1 commentread comment
1 2 3 4 5
1 last vote to show rating
add to favorites
×
Save as Personal and add changes to this tab that will be seen only by you. Learn more ›
×
You can save this tab as Personal to edit and correct it or add notes. All changes will be seen only by you. Learn more »
launch autoscroll
font size
0
reset
guitar tuner
edit
Autoscroll
slow
fast
+/-
esc
set tempo
stop
Difficulty
                    I Devise My Own Demise - Papa Roach

Tabbed By : flawed
e-mail: quackintyre@hotmail.co.uk

Tuning: 5-string bass (BEADG)

I tabbed this 'cos noone else has, and 'cos everyone was having a rip at PR about their 
album, which rocks.

First tab so e-mail me plz.
Enjoy :)

intro: 0:07
G--------------------------------|
D55555555------------------------|
A--------666666665555555555555555| x3
E--------------------------------|
B--------------------------------|

G--------------------------------|
D55555555------------------------|
A--------66666668-555555555555555| x1
E--------------------------------|
B--------------------------------|

verse: 0:28
G------------------------------------------|
D------------------------------------------|
A------------------------------------------| x2
E------------------------------------------|
B888-8-888--888-8-888--444-4-444--444-4-444|

chorus I: 0:52
G-----------------------------------------|
D-----------------------------------------|
A-----------------------------------------| x4
E-----------------------------------------|
B88888888-444444444-66666666-66666666-----|

chorus II: 1:15
G---------------------------------|
D---------------------------------|
A---------------------------------| x1
E000-00---------------------------|
B-------333-----------------------|

verse: 1:17
G------------------------------------------|
D------------------------------------------|
A------------------------------------------| x2
E------------------------------------------|
B888-8-888--888-8-888--444-4-444--444-4-444|

chorus I: 1:39
G-----------------------------------------|
D-----------------------------------------|
A-----------------------------------------| x4
E-----------------------------------------|
B88888888-444444444-66666666-66666666-----|

chorus III: 2:02
G-----------------------------------------|
D-----------------------------------------|
A-----------------------------------------| x2
E-----------------------------------------|
B88888888-444444444-33333333-33333333-----|

bridge I: 2:13
G000-00--------------------------------------|
D------111-11--------------------------------|
A------------111-11--------------------------| x2
E------------------111-11--------------------|
B--------------------------------------------|

bridge II: 2:25
G------------------------------------------|
D------------------------------------------|
A------------------------------------------| x1
E------------------------------------------|
B888-8-888--888-8-888--444-4-444--444-4-444|

chorus I: 2:36
G-----------------------------------------|
D-----------------------------------------|
A-----------------------------------------| x4
E-----------------------------------------|
B88888888-444444444-66666666-66666666-----|

bridge III: 2:58
G--------------------------------------|
D11111111------------------------------|
A--------11111111----------------------| x2
E----------------1111111111111111------|
B--------------------------------------|

outro 3:10
G-------------------------|
D1-1----------------------|
A----1-1------------------| x2
E--------1~---------------|
B-------------------------|

| /  slide up
| \  slide down
| h  hammer-on
| p  pull-off
| ~  vibrato
| +  harmonic
| x  Mute note

            
            
Suggest correction
Creating personal tab
Creating personal tab
You can edit any tab online and save it as your Personal.

You can edit, replace or remove any tab part or add personal notes – all changes will be seen only by you.

Personal tabs can be accessed anytime from any device, even offline.
Learn more »
Give kudos to tab author, rate the tab!
1 2 3 4 5
comments
print report bad tab
1 comment total.
0 reply
karl82 10 Sep 16, 2008 12:50 PM

Hey pretty good for a fisrt tab, but i don't have a 5 strings so i used drop D tunnig. Anyway sounds good to me xD.

guest
Wanna post a correction for this tab? Suggest correction