Oops, an error
Loading. Please wait.

Kick In The Teeth bass

version 1
version 1

Whole song

Interactive

4,735 views 3 this week
no commentswrite comment
1 2 3 4 5
x 6
add to favorites
×
Save as Personal and add changes to this tab that will be seen only by you. Learn more ›
×
You can save this tab as Personal to edit and correct it or add notes. All changes will be seen only by you. Learn more »
launch autoscroll
font size
0
reset
guitar tuner
edit
Autoscroll
slow
fast
+/-
esc
set tempo
stop
This is a really easy song to play, listen to it to get the timing perfect.

Email me at jonno49@optonline.net for anything.

thanks.

No bass till :21

Verse 1
G|------------------------------|------------------------------|
D|------------------------------|------------------------------|
A|------------------------------|------------------------------|
D|--7-7-7--7-7-7--7-7-7--7-7-7--|--7-7-7--7-7-7--7-7-7--7-7-7--|

G|------------------------------|------------------------------|
D|------------------------------|------------------------------|
A|------------------------------|------------------------------|
D|--7-7-7--7-7-7--7-7-7--7-7-7--|--7-7-7--7-7-7--7-7-7--7-7-7--|

Pre-Chorus 1
G|------------------------------|------------------------------|
D|------------------------------|------------------------------|
A|------------------------------|------------------------------|
D|--3-3-3--3-3-3--3-3-3--3-3-3--|--3-3-3--3-3-3--3-3-3--3-3-3--|

G|------------------------------|------------------------------|
D|------------------------------|------------------------------|
A|------------------------------|------------------------------|
D|--5-5-5--5-5-5--5-5-5--5-5-5--|--5-5-5--5-5-5--5-------------|

Chorus 1
G|------------------------------|------------------------------|
D|------------------------------|------------------------------|
A|------------------------------|------------------------------|
D|--7-7-7--7-7-7--7-7-7--7-7-7--|--7-7-7--7-7-7--7-7-7--7-7-7--|

G|------------------------------|------------------------------|
D|------------------------------|------------------------------|
A|------------------------------|------------------------------|
D|--0-0-0--0-0-0--0-0-0--0-0-0--|--0-0-0--0-0-0--0-0-0--2-2-2--|

G|------------------------------|------------------------------|
D|------------------------------|------------------------------|
A|------------------------------|------------------------------|
D|--3-3-3--3-3-3--3-3-3--3-3-3--|--3-3-3--3-3-3--3-3-3--3-3-3--|

G|------------------------------|------------------------------|
D|------------------------------|------------------------------|
A|------------------------------|------------------------------|
D|--2-2-2--2-2-2--2-2-2--2-2-2--|--5-5-5--5-5-5--6-6-6--6-6-6--|

G|------------------------------|------------------------------|
D|------------------------------|------------------------------|
A|------------------------------|------------------------------|
D|--7~~~~~~~~~~~~---------------|------------------------------|

G|------------------------------|------------------------------|
D|------------------------------|------------------------------|
A|------------------------------|------------------------------|
D|--7~~~~~~~~~~~~---------------|------------------------------|

Verse 2
G|------------------------------|------------------------------|
D|------------------------------|------------------------------|
A|------------------------------|------------------------------|
D|--7-7-7--7-7-7--7-7-7--7-7-7--|--7-7-7--7-7-7--7-7-7--7-7-7--|

G|------------------------------|------------------------------|
D|------------------------------|------------------------------|
A|------------------------------|------------------------------|
D|--7-7-7--7-7-7--7-7-7--7-7-7--|--7-7-7--7-7-7--7-7-7--7-7-7--|

G|------------------------------|------------------------------|
D|------------------------------|------------------------------|
A|------------------------------|------------------------------|
D|--3-3-3--3-3-3--3-3-3--3-3-3--|--7-7-7--7-7-7--7-7-7--7-7-7--|

G|------------------------------|------------------------------|
D|------------------------------|------------------------------|
A|------------------------------|------------------------------|
D|--7-7-7--7-7-7--7-7-7--7-7-7--|--7-7-7--7-7-7--7-7-7--7-7-7--|

G|------------------------------|
D|------------------------------|
A|------------------------------|
D|--7-7-7--7-7-7--7-7-7--7-7-7--|

Pre Chorus 2
G|------------------------------|------------------------------|
D|------------------------------|------------------------------|
A|------------------------------|------------------------------|
D|--3-3-3--3-3-3--3-3-3--3-3-3--|--3-3-3--3-3-3--3-3-3--3-3-3--|

G|------------------------------|------------------------------|
D|------------------------------|------------------------------|
A|------------------------------|------------------------------|
D|--5-5-5--5-5-5--5-5-5--5-5-5--|--5-5-5--5-5-5--5-------------|

Chorus 2
G|------------------------------|------------------------------|
D|------------------------------|------------------------------|
A|------------------------------|------------------------------|
D|--7-7-7--7-7-7--7-7-7--7-7-7--|--7-7-7--7-7-7--7-7-7--7-7-7--|

G|------------------------------|------------------------------|
D|------------------------------|------------------------------|
A|------------------------------|------------------------------|
D|--0-0-0--0-0-0--0-0-0--0-0-0--|--0-0-0--0-0-0--0-0-0--2-2-2--|

G|------------------------------|------------------------------|
D|------------------------------|------------------------------|
A|------------------------------|------------------------------|
D|--3-3-3--3-3-3--3-3-3--3-3-3--|--3-3-3--3-3-3--3-3-3--3-3-3--|

G|------------------------------|------------------------------|
D|------------------------------|------------------------------|
A|------------------------------|------------------------------|
D|--2-2-2--2-2-2--2-2-2--2-2-2--|--5-5-5--5-5-5--6-6-6--6-6-6--|

G|------------------------------|------------------------------|
D|------------------------------|------------------------------|
A|------------------------------|------------------------------|
D|--7~~~~~~~~~~~~---------------|------------------------------|

G|------------------------------|------------------------------|
D|------------------------------|------------------------------|
A|------------------------------|------------------------------|
D|--7~~~~~~~~~~~~---------------|------------------------------|

Bridge
G|------------------------------|------------------------------|
D|------------------------------|------------------------------|
A|------------------------------|------------------------------|
D|--7-7-7--7-7-7--7-7-7--7-7-7--|--7-7-7--7-7-7--7-7-7--7-7-7--|

G|------------------------------|------------------------------|
D|------------------------------|------------------------------|
A|------------------------------|------------------------------|
D|--3-3-3--3-3-3--3-3-3--3-3-3--|--3-3-3--3-3-3--3-3-3--3-3-3--|

G|------------------------------|------------------------------|
D|------------------------------|------------------------------|
A|------------------------------|------------------------------|
D|--0-0-0--0-0-0--0-0-0--0-0-0--|--0-0-0--0-0-0--0-0-0--2-2-2--|

G|------------------------------|------------------------------|
D|------------------------------|------------------------------|
A|------------------------------|------------------------------|
D|--3-3-3--3-3-3--3-3-3--3-3-3--|--2-2-2--2-2-2--5-5-5--5-5-5--|

Solo
G|------------------------------|------------------------------|
D|------------------------------|------------------------------|
A|------------------------------|------------------------------|
D|--7-7-7--7-7-7--7-7-7--7-7-7--|--7-7-7--7-7-7--7-7-7--7-7-7--|

G|------------------------------|------------------------------|
D|------------------------------|------------------------------|
A|------------------------------|------------------------------|
D|--0-0-0--0-0-0--0-0-0--0-0-0--|--0-0-0--0-0-0--0-0-0--2-2-2--|

G|------------------------------|------------------------------|
D|------------------------------|------------------------------|
A|------------------------------|------------------------------|
D|--3-3-3--3-3-3--3-3-3--3-3-3--|--3-3-3--3-3-3--3-3-3--3-3-3--|

G|------------------------------|------------------------------|
D|------------------------------|------------------------------|
A|------------------------------|------------------------------|
D|--2-2-2--2-2-2--2-2-2--2-2-2--|--5-5-5--5-5-5--6-6-6--6-6-6--|

Interlude
G|------------------------------|------------------------------|
D|------------------------------|------------------------------|
A|------------------------------|------------------------------|
D|--7~~-----------7-------------|--7-------------7-------------|

G|------------------------------|------------------------------|
D|------------------------------|------------------------------|
A|--3-5-5--5---5--5-------------|--5-------------5-------------|
D|------------------------------|------------------------------|

G|------------------------------|------------------------------|
D|-----------------------3------|------------------------------|
A|------------------------------|------------------------------|
D|--3-------------3-------------|--3-------------3-------------|

G|------------------------------|------------------------------|
D|--2-------------2-------------|------------------------------|
A|------------------------------|------------------------------|
D|------------------------------|--5------5------5------5------|

Outro Chorus
G|------------------------------|------------------------------|
D|------------------------------|------------------------------|
A|------------------------------|------------------------------|
D|--7-7-7--7-7-7--7-7-7--7-7-7--|--7-7-7--7-7-7--7-7-7--7-7-7--|

G|------------------------------|------------------------------|
D|------------------------------|------------------------------|
A|------------------------------|------------------------------|
D|--0-0-0--0-0-0--0-0-0--0-0-0--|--0-0-0--0-0-0--0-0-0--2-2-2--|

G|------------------------------|------------------------------|
D|------------------------------|------------------------------|
A|------------------------------|------------------------------|
D|--3-3-3--3-3-3--3-3-3--3-3-3--|--3-3-3--3-3-3--3-3-3--3-3-3--|

G|------------------------------|------------------------------|
D|------------------------------|------------------------------|
A|------------------------------|------------------------------|
D|--2-2-2--2-2-2--2-2-2--2-2-2--|--5-5-5--5-5-5--6-6-6--6-6-6--|

Outro
G|------------------------------|------------------------------|
D|------------------------------|------------------------------|
A|------------------------------|------------------------------|
D|--7~~~~~~~~~~~~---------------|------------------------------|

G|------------------------------|------------------------------|
D|------------------------------|------------------------------|
A|------------------------------|------------------------------|
D|--7~~~~~~~~~~~~---------------|------------------------------|

G|------------------------------|------------------------------|
D|------------------------------|------------------------------|
A|------------------------------|------------------------------|
D|--7~~~~~~~~~~~~---------------|------------------------------|

G|------------------------------|------------------------------|
D|------------------------------|------------------------------|
A|------------------------------|------------------------------|
D|--7~~~~~~~~~~~~---------------|------------------------------|

G|------------------------------|
D|------------------------------|
A|------------------------------|
D|----------------------5-7-7~--|

Order of Parts:

Verse
Pre-Chorus
Chorus
Verse
Pre-Chorus
Chorus
Bridge
Solo
Interlude
Outro Chorus
Outro


            
            
Suggest correction
Creating personal tab
Creating personal tab
You can edit any tab online and save it as your Personal.

You can edit, replace or remove any tab part or add personal notes – all changes will be seen only by you.

Personal tabs can be accessed anytime from any device, even offline.
Learn more »
comments
print report bad tab
guest
You may want to rate the tab now too:
select rating
Wanna post a correction for this tab? Suggest correction