Oops, an error
Loading. Please wait.
We have an official Lifeline tab made by UG professional guitarists. Check out the tab »
×
33,019 views 15 this week
10 commentsread comments
1 2 3 4 5
x 22
add to favorites
×
Save as Personal and add changes to this tab that will be seen only by you. Learn more ›
×
You can save this tab as Personal to edit and correct it or add notes. All changes will be seen only by you. Learn more »
launch autoscroll
font size
0
reset
how to read this tab
guitar tuner
backing track
0:00
0:00
edit
Autoscroll
slow
fast
+/-
esc
set tempo
stop
---------------------------------------------------------------------------
                            Lifeline - Papa Roach
---------------------------------------------------------------------------

Tabbed by: glade8316

Email: gladenielson@yahoo.com

Tuning: D,A,D,G,B,E



intro

E|---------------------------------------------------------------------|
B|---------------------------------------------------------------------|
G|---------------------------------------------------------------------|
D|------12-0-0-12-0-0-12-0-11-0-0-11-0-0-11-0-16-0-0-16-0-0-16-0-------|
A|---------------------------------------------------------------------|
D|---------------------------------------------------------------------|

E|------------------------------|X4
B|------------------------------|
G|------------------------------|
D|------11-0-0-11-0-0-11-0------|
A|------------------------------|
D|------------------------------|


E|---------------------------------------------------------------------|
B|---------------------------------------------------------------------|
G|---------------------------------------------------------------------|
D|------12-0-0-12-0-0-12-0-11-0-0-11-0-0-11-0-17-0-0-17-0-0-17-0-------|
A|---------------------------------------------------------------------|
D|---------------------------------------------------------------------|

E|------------------------------|X1
B|------------------------------|
G|------------------------------|
D|------11-0-0-11-0-0-11-0------|
A|------------------------------|
D|------------------------------|


E|---------------------------------------------------------------------|X1
B|---------------------------------------------------------------------|
G|---------------------------------------------------------------------|
D|----12-0-0-12-0-0-12-0-11-0-0-11-0-0-11-0-16-0-0-16-0-0-16-0--11\----|
A|---------------------------------------------------------------------|
D|---------------------------------------------------------------------|




pre-verse

E|----------------------------------------------------------------------|
B|----------------------8-7---------------------------------------------|
G|-------7~~~~----777~--x-x-----------------------------------7~~-------|
D|-------7~~~~----777~--x-x-5~~~~----555~--5-4-2~~~~---7~~~~--7~~-------|
A|-------5~~~~----555~--5-5-5~~~~----555~--5-4-2~~~~---7~~~~--5~~-------|
D|--------------------------5~~~~----555~--5-4-2~~~~---7~~~~------------|

E|----------------------|
B|----------------------|
G|---7777666644442222---|
D|---xxxxxxxxxxxxxxxx---|
A|---5555444422220000---|
D|----------------------|




verse 1

E|----------------------------------------------------------------------|
B|----------------------------------------------------------------------|
G|--7~-xx7~-xx7xx7~-xx7~-xx7xx------------------------------------------|
D|--7~-xx7~-xx7xx7~-xx7~-xx7xx5~-xx5~-xx5xx5~-xx5~-xx5xx2~-xx2~-xx2xx---|
A|--5~-xx5~-xx5xx5~-xx5~-xx5xx5~-xx5~-xx5xx5~-xx5~-xx5xx2~-xx2~-xx2xx---|
D|----------------------------5~-xx5~-xx5xx5~-xx5~-xx5xx2~-xx2~-xx2xx---|




pre-chorus

E|------------------------------------------------------|
B|------------------------------------------------------|
G|----------7777777777777777-777799991111111114141414---|
D|---7~~~~--7777777777777777-xxxxxxxx-x-x-x-x-x-x-x-x---|
A|---7~~~~--5555555555555555-55557777-9-9-9-912121212---|
D|---7~~~~----------------------------------------------|




chorus

E|---------------------------------------------------------------------|
B|---------------------------------------------------------------------|
G|---7-7-7-7-7-7-7-7-7-7-7-7-------------------------------------------|
D|---7-7-7-7-7-7-7-7-7-7-7-7-7-7-7-7-5-5-5-5-5-5-5-5-5-5-5-5-5-5-5-5---|
A|---5-5-5-5-5-5-5-5-5-5-5-5-7-7-7-7-5-5-5-5-5-5-5-5-5-5-5-5-5-5-5-5---|
D|---------------------------7-7-7-7-5-5-5-5-5-5-5-5-5-5-5-5-5-5-5-5---|

E|-----------------------------------------------------|
B|-----------------------------------------------------|
G|-----------------------------------7-7-7-7-7-7-7-7---|
D|---2-2-2-2-2-2-2-2-7-7-7-7-7-7-7-7-7-7-7-7-7-7-7-7---|
A|---2-2-2-2-2-2-2-2-7-7-7-7-7-7-7-7-5-5-5-5-5-5-5-5---|
D|---2-2-2-2-2-2-2-2-7-7-7-7-7-7-7-7-------------------|

E|--------------------------------------|
B|--------------------------------------|
G|---141414141212121211111111-7-7-7-7---|
D|----x-x-x-x-x-x-x-x-x-x-x-x-x-x-x-x---|
A|---1212121210101010-9-9-9-9-5-5-5-5---|
D|--------------------------------------|




verse 2

E|----------------------------------------------------------------------|
B|----------------------------------------------------------------------|
G|--7~-xx7~-xx7xx7~-xx7~-xx7xx------------------------------------------|
D|--7~-xx7~-xx7xx7~-xx7~-xx7xx5~-xx5~-xx5xx5~-xx5~-xx5xx2~-xx2~-xx2xx---|
A|--5~-xx5~-xx5xx5~-xx5~-xx5xx5~-xx5~-xx5xx5~-xx5~-xx5xx2~-xx2~-xx2xx---|
D|----------------------------5~-xx5~-xx5xx5~-xx5~-xx5xx2~-xx2~-xx2xx---|




pre-chorus

E|------------------------------------------------------|
B|------------------------------------------------------|
G|----------7777777777777777-777799991111111114141414---|
D|---7\-----7777777777777777-xxxxxxxx-x-x-x-x-x-x-x-x---|
A|---7\-----5555555555555555-55557777-9-9-9-912121212---|
D|---7\-------------------------------------------------|




chorus

E|---------------------------------------------------------------------|
B|---------------------------------------------------------------------|
G|---7-7-7-7-7-7-7-7-7-7-7-7-------------------------------------------|
D|---7-7-7-7-7-7-7-7-7-7-7-7-7-7-7-7-5-5-5-5-5-5-5-5-5-5-5-5-5-5-5-5---|
A|---5-5-5-5-5-5-5-5-5-5-5-5-7-7-7-7-5-5-5-5-5-5-5-5-5-5-5-5-5-5-5-5---|
D|---------------------------7-7-7-7-5-5-5-5-5-5-5-5-5-5-5-5-5-5-5-5---|

E|-----------------------------------------------------|
B|-----------------------------------------------------|
G|-----------------------------------7-7-7-7-7-7-7-7---|
D|---2-2-2-2-2-2-2-2-7-7-7-7-7-7-7-7-7-7-7-7-7-7-7-7---|
A|---2-2-2-2-2-2-2-2-7-7-7-7-7-7-7-7-5-5-5-5-5-5-5-5---|
D|---2-2-2-2-2-2-2-2-7-7-7-7-7-7-7-7-------------------|

E|----------------------|
B|----------------------|
G|---11/12/11--9-9/11---|
D|----x-x--x---x-x-x----|
A|----9/10/9---7-7/9----|
D|----------------------|

E|---------------------------------------------------------------------|
B|---------------------------------------------------------------------|
G|---7-7-7-7-7-7-7-7-7-7-7-7-------------------------------------------|
D|---7-7-7-7-7-7-7-7-7-7-7-7-7-7-7-7-5-5-5-5-5-5-5-5-5-5-5-5-5-5-5-5---|
A|---5-5-5-5-5-5-5-5-5-5-5-5-7-7-7-7-5-5-5-5-5-5-5-5-5-5-5-5-5-5-5-5---|
D|---------------------------7-7-7-7-5-5-5-5-5-5-5-5-5-5-5-5-5-5-5-5---|

E|-----------------------------------------------------|
B|-----------------------------------------------------|
G|-----------------------------------7-7-7-7-7-7-7-7---|
D|---2-2-2-2-2-2-2-2-7-7-7-7-7-7-7-7-7-7-7-7-7-7-7-7---|
A|---2-2-2-2-2-2-2-2-7-7-7-7-7-7-7-7-5-5-5-5-5-5-5-5---|
D|---2-2-2-2-2-2-2-2-7-7-7-7-7-7-7-7-------------------|

E|----------------------|
B|----------------------|
G|---7777666644442222---|
D|---xxxxxxxxxxxxxxxx---|
A|---5555444422220000---|
D|----------------------|




brigde

E|---------------------------------------------------------------------|
B|---------------------------------------------------------------------|
G|---4-4-4-4-4-4/7---------------------------------11/12\11--9/11--7---|
D|---4-4-4-4-4-4/7--7-7-7-7-7-7/9--5-5-5-5-5-5-5-5--x--x-x---x-x---x---|
A|---2-2-2-2-2-2/5--7-7-7-7-7-7/9--5-5-5-5-5-5-5-5--9/10\9---7/9---5---|
D|------------------7-7-7-7-7-7/9--5-5-5-5-5-5-5-5---------------------|

E|---------------------------------------------------------------------|
B|---------------------------------------------------------------------|
G|---4-4-4-4-4-4/7---------------------------------11/12\11--9/11-14---|
D|---4-4-4-4-4-4/7--7-7-7-7-7-7/9--5-5-5-5-5-5-5-5--x--x-x---x-x---x---|
A|---2-2-2-2-2-2/5--7-7-7-7-7-7/9--5-5-5-5-5-5-5-5--9/10\9---7/9--12---|
D|------------------7-7-7-7-7-7/9--5-5-5-5-5-5-5-5---------------------|




intro again

E|---------------------------------------------------------------------|
B|---------------------------------------------------------------------|
G|---------------------------------------------------------------------|
D|------12-0-0-12-0-0-12-0-11-0-0-11-0-0-11-0-16-0-0-16-0-0-16-0-------|
A|---------------------------------------------------------------------|
D|---------------------------------------------------------------------|

E|------------------------------|X2
B|------------------------------|
G|------------------------------|
D|------11-0-0-11-0-0-11-0------|
A|------------------------------|
D|------------------------------|


E|---------------------------------------------------------------------|
B|---------------------------------------------------------------------|
G|---------------------------------------------------------------------|
D|------12-0-0-12-0-0-12-0-11-0-0-11-0-0-11-0-17-0-0-17-0-0-17-0-------|
A|---------------------------------------------------------------------|
D|---------------------------------------------------------------------|

E|------------------------------|X1
B|------------------------------|
G|------------------------------|
D|------11-0-0-11-0-0-11-0------|
A|------------------------------|
D|------------------------------|


E|---------------------------------------------------------------------|
B|---------------------------------------------------------------------|
G|---------------------------------------------------------------------|
D|----12-0-0-12-0-0-12-0-11-0-0-11-0-0-11-0-16-0-0-16-0-0-16-0--11\----|
A|---------------------------------------------------------------------|
D|---------------------------------------------------------------------|




last chorus

E|---------------------------------------------------------------------|
B|---------------------------------------------------------------------|
G|---------------------------------------------------------------------|
D|---5-5-5-5-5-5-5-5-5-5-5-5-5-5-5-5-2-2-2-2-2-2-2-2-7-7-7-7-7-7-7-7---|
A|---5-5-5-5-5-5-5-5-5-5-5-5-5-5-5-5-2-2-2-2-2-2-2-2-7-7-7-7-7-7-7-7---|
D|---5-5-5-5-5-5-5-5-5-5-5-5-5-5-5-5-2-2-2-2-2-2-2-2-7-7-7-7-7-7-7-7---|

E|----------------------------------------------|
B|----------------------------------------------|
G|---7-7-7-7-7-7-7-7-777799991111111114141414---|
D|---7-7-7-7-7-7-7-7-xxxxxxxx-x-x-x-x-x-x-x-x---|
A|---5-5-5-5-5-5-5-5-55557777-9-9-9-912121212---|
D|----------------------------------------------|

E|---------------------------------------------------------------------|
B|---------------------------------------------------------------------|
G|---7-7-7-7-7-7-7-7-7-7-7-7-7-7-7-7-4-4-4-4-4-4-4-4-4-4-4-4-4-4-4-4---|
D|---7-7-7-7-7-7-7-7-7-7-7-7-7-7-7-7-4-4-4-4-4-4-4-4-4-4-4-4-4-4-4-4---|
A|---5-5-5-5-5-5-5-5-5-5-5-5-5-5-5-5-2-2-2-2-2-2-2-2-2-2-2-2-2-2-2-2---|
D|---------------------------------------------------------------------|

E|---------------------------------------------------------------------|
B|---------------------------------------------------------------------|
G|-----------------------------------7-7-7-7-7-7-7-7-7-7-7-7-----------|
D|---2-2-2-2-2-2-2-4-5-5-5-5-5-5-5-5-7-7-7-7-7-7-7-7-7-7-7-7---11\-----|
A|---2-2-2-2-2-2-2-4-5-5-5-5-5-5-5-5-5-5-5-5-5-5-5-5-5-5-5-5-----------|
D|---2-2-2-2-2-2-2-4-5-5-5-5-5-5-5-5-----------------------------------|




outro

E|---------------------------------------------------------------------|
B|---------------------------------------------------------------------|
G|---------------------------------------------------------------------|
D|------12-0-0-12-0-0-12-0-11-0-0-11-0-0-11-0-16-0-0-16-0-0-16-0-------|
A|---------------------------------------------------------------------|
D|---------------------------------------------------------------------|

E|------------------------------|X2
B|------------------------------|
G|------------------------------|
D|------11-0-0-11-0-0-11-0------|
A|------------------------------|
D|------------------------------|


E|---------------------------------------------------------------------|
B|---------------------------------------------------------------------|
G|---------------------------------------------------------------------|
D|------12-0-0-12-0-0-12-0-11-0-0-11-0-0-11-0-17-0-0-17-0-0-17-0-------|
A|---------------------------------------------------------------------|
D|---------------------------------------------------------------------|

E|------------------------------|X1
B|------------------------------|
G|------------------------------|
D|------11-0-0-11-0-0-11-0------|
A|------------------------------|
D|------------------------------|


E|------------------------------------------------------------------------|
B|------------------------------------------------------------------------|
G|------------------------------------------------------------------------|
D|----12-0-0-12-0-0-12-0-11-0-0-11-0-0-11-0-16-0-0-16-0-0-16-0--11\--0~---|
A|-------------------------------------------------------------------0~---|
D|-------------------------------------------------------------------0~---|



well i hope you like it, i know its nowhere close to 100% but
i think its alittle better then a couple of the other tabs no
affence to anybody, the timing isnt perfect either, any corrections
please let me know

            
            
Suggest correction
Creating personal tab
Creating personal tab
You can edit any tab online and save it as your Personal.

You can edit, replace or remove any tab part or add personal notes – all changes will be seen only by you.

Personal tabs can be accessed anytime from any device, even offline.
Learn more »
comments
print report bad tab
10 comments total. Showing first comments.
0 reply
shadowsfall92 10 Jan 22, 2010 07:00 AM

the rhythm guitar is here guys

check the other for the lead

i finally know Lifeline
easy

+1 reply
Elliott Love 10 Mar 10, 2010 01:07 PM

AWESOME AWESOME AWESOME!!!! Finaly the right way to play this song.lol Sweet job man sounds perfect. The only thing that is missing is in the intro after you play the 16 for the last time you go to the 11 not 12. so its like this

D|-12-0-0-12-0-0-12-0-11-0-0-11-0-0-11-0-16-0-0-16-0-0-16-0

Then do this

-11-0-0-11-0-0-11-0-
Then just start it all over.

+1 reply
glade8316 166 Mar 10, 2010 06:37 PM

thanks dude, and thankyou for letting me know about the intro, i know its supposed to go that way but i was in a hurry when i tabbed it and didnt even notice i tabbed it was wrong,

guest
You may want to rate the tab now too:
select rating
Wanna post a correction for this tab? Suggest correction