Oops, an error
Loading. Please wait.
We have an official No Matter What tab made by UG professional guitarists. Check out the tab »
×
48,687 views 15 this week
4 commentsread comments
1 2 3 4 5
x 7
add to favorites
×
Save as Personal and add changes to this tab that will be seen only by you. Learn more ›
×
You can save this tab as Personal to edit and correct it or add notes. All changes will be seen only by you. Learn more »
launch autoscroll
font size
0
reset
how to read this tab
guitar tuner
edit
Autoscroll
slow
fast
+/-
esc
set tempo
stop
Artist: Papa Roach
Song : No Matter What
Tuning: Drop D

E|----------------------------------------------------|
B|------2-----4--------6--/7-----6--/7----------------|
G|--------------6---------6---------6-----------------|
D|----4-----------------------------------------------|
A|---2------4--------6---------6----------------------|
D|----------------------------------------------------|

    I need you right here, by my side
    You’re everything I’m not in my life

E|----------------------------------------------------|
B|-----6--/7-----6--/7------4----------2--------------|
G|--------6---------6---------6------4----------------|
D|---8-------- 8----------6--------4------------------|
A|---6-------- 6----------4--------2------------------|
D|----------------------------------------------------|

    We’re indestructable, we are untouchable Nothing can take us down tonight
    You are so beautiful, it should be criminal that you could be mine

E|----------------------------------------------------|
B|----------------------------------------------------|
G|-------------4-------------------6------------------|
D|-------------4----------1--------6------------------|
A|-------------2----------1--------4------------------|
D|------------------------1---------------------------|
                 ....       ....      ....
     And we will make it out alive
     I’ll promise you this love will never die!

E|--------------------------------------------------------|-------|
B|--------------------------------------------------------|-------|
G|----------------6---------------------------------------|--8-8--|
D|---4---4-3------6--4-6-3/----1---4-3------4---4-6-8/--1-|--8-8--|
A|---4-------4/---4------------1-------6/---4-----------1-|--6-6--|
D|---4-------------------------1------------2-----------1-|-------|
       ...          ...           ...          ...
        No matter what, I got your back
        I’ll take a bullet for you if it comes to that
        I swear to God that in the bitter end
        We’re gonna be the last ones standing

So believe me when I say, you’re the one
They’ll never forgive us for the things we’ve done

And we will make it out alive
I’ll promise you this love will never die!

No matter what, I got your back
I'll take a bullet for you if it comes to that
I swear to God that in the bitter end
We're gonna be the last ones standing
We'll never fight, we'll never fade
I'll promise you forever and my soul today
No matter what until the bitter end
We're gonna be the last ones standing


E|-----------------------------------|
B|-----------------------------------|
G|--------4---------6----------------|
D|---1----4----6----6----------------|
A|---1----2----6----4----------------|
D|---1---------4---------------------|
       ...  ...  ...  ...

E|-----------------------------------|
B|-----------------------------------|
G|--------3-----4-----6--------------|
D|--1-----3-----4-----6--------------|
A|--1-----1-----2-----4--------------|
D|--1--------------------------------|
      ....  ....   ...  ....
      And everybody said that we would never last,
      And if they saw us now I bet they'd take it back
      It doesn't matter what we do or what we say
      Cause nothing matters anyway

E|-----------------------------------------------------------|
B|-----------------------------------------------------------|
G|-----------------6-----------------------------------------|
D|---4---4-3-------6--4-6-3/---1---4-3------4---4-6-8/--1----|
A|---4-------4/----4-----------1-------6/---4-----------1----|
D|---4-------------------------1------------2-----------1----|

      No matter what, I got your back
      I'll take a bullet for you if it comes to that
      I swear to God that in the bitter end
      We're gonna be the last ones standing
      We'll never fight (We'll never fight) We'll never fade (We'll never fade)
      No matter what until the bitter end
      We're gonna be the last ones standing


************************************

| /  Slide up

************************************

            
            
Suggest correction
Creating personal tab
Creating personal tab
You can edit any tab online and save it as your Personal.

You can edit, replace or remove any tab part or add personal notes – all changes will be seen only by you.

Personal tabs can be accessed anytime from any device, even offline.
Learn more »
comments
print report bad tab
4 comments total. Showing first comments.
0 reply
b4mv96 83 Sep 07, 2010 10:31 AM

good. except missing the solo and the chords in the chorus sound wrong. power chords like that arent normally used in drop d

0 reply
Ryan Nolan 41 Sep 08, 2010 01:19 PM

Hey I made my own tabs for this song but when I sent them I forgot to login so when/if they get accepted its just going to say its from "Unregistered". My tabs have some corrections but is still missing the guitar solo. Anyway just wanted to let you know that the new tabs (if they get accepted) are mine. Rock on!

0 reply
b4mv96 83 Jan 16, 2011 07:17 PM

if anyone wants tabs for the solo check out my tab for this song. i believe its version 3

guest
You may want to rate the tab now too:
select rating
Wanna post a correction for this tab? Suggest correction