Oops, an error
Loading. Please wait.

Not Listening bass

version 2
version 2

Whole song

Interactive

1,056 views 3 this week
no commentswrite comment
1 2 3 4 5
1 last vote to show rating
add to favorites
×
Save as Personal and add changes to this tab that will be seen only by you. Learn more ›
×
You can save this tab as Personal to edit and correct it or add notes. All changes will be seen only by you. Learn more »
launch autoscroll
font size
0
reset
guitar tuner
edit
Autoscroll
slow
fast
+/-
esc
set tempo
stop
Artist: Papa Roach
Song: "Not Listening"
Album: Getting Away With Murder
Tuning: D A D G
Tabbed by: Cody Fuller, "rockerc"

This is 100% correct this time. My other tab for this was ok but wasn't right and I felt 
needed to fix it and make it perfect. So here you go.

 To match the tone of this song set your EQ so the bass is at 8 and leave the treble and mids at 5.

Intro:

G|-----------------------------------------------------------------|
D|-----------------------------------------------------------------|
A|-5-5-5-5-5-5-5-5-----------------3-3-3-3-3-3-3-3-----------------|
D|-----------------5-5-5-5-5-5-5-5-----------------3-3-3-3-3-3-3-3-|

G|--------------------------------------------------------------|
D|--------------------------------------------------------------|
A|-5-5-5-5-5-5-5-5-----------------3-3-3-3-3-3-3-3--------------|
D|-----------------5-5-5-5-5-5-5-5-----------------3-3-3-3--3-3-|

G|------------------------------------------------------------------|
D|------------------------------------------------------------------|
A|-5-5-5-5-5-5-5-5----------------------------------3-3-3-3---------|
D|-----------------5-5-5-5-5-5-5-5--3-3-3-3-3-3-3-3---------5-5-5-5-|

Verse

G|---------------------------------------------------------------|
D|-------------------------5---------------7---------------------|
A|---------5-------3-3--3----3-----5-5--5-----5------------7-----|  x2
D|-3-3--3----3-------------------------------------5-5--5----5---|

G|------------------------------------|
D|------------------------------------|
A|------------------------------------|
D|-2-2--2-2--3-3--3-3--5-5--5-5--3-3--|

Chorus 1

G|--------------------------------------------------------------|
D|--------------------------------------------------------------|
A|-5-5-5-5-5-5-5-5-----------------3-3-3-3-3-3-3-3--------------|
D|-----------------5-5-5-5-5-5-5-5-----------------3-3-3-3--3-3-|

G|------------------------------------------------------------------|
D|------------------------------------------------------------------|
A|-5-5-5-5-5-5-5-5----------------------------------3-3-3-3-3-3-3-3-|
D|-----------------5-5-5-5-5-5-5-5--3-3-3-3-3-3-3-3-----------------|

(let the last open note ring until start of 2nd verse)
G|---------------------|
D|---------------------|
A|--------9--8---------|
D|--0--0--------8-8--0-|

Verse

Rest until right after Jacoby sings "because i'm not afraid to derail"

G|-----------------------------------------|
D|-----------------------------------------|
A|-----------------------------------------|
D|-2-2--2-2--3-3--3-3--5-5--5-5--3-3--5--0-|

G|---------------------------------------------------------------|
D|-------------------------5---------------7---------------------|
A|---------5-------3-3--3----3-----5-5--5-----5------------7-----|  x2
D|-3-3--3----3-------------------------------------5-5--5----5---|

G|------------------------------------|
D|------------------------------------|
A|------------------------------------|
D|-2-2--2-2--3-3--3-3--5-5--5-5--3-3--|

Chorus 2
G|--------------------------------------------------------------|
D|--------------------------------------------------------------|
A|-5-5-5-5-5-5-5-5-----------------3-3-3-3-3-3-3-3--------------|
D|-----------------5-5-5-5-5-5-5-5-----------------3-3-3-3--3-3-|

G|------------------------------------------------------------------|
D|------------------------------------------------------------------|
A|-5-5-5-5-5-5-5-5----------------------------------3-3-3-3-3-3-3-3-|
D|-----------------5-5-5-5-5-5-5-5--3-3-3-3-3-3-3-3-----------------|

G|-----------------------------------------------------------------|
D|-----------------------------------------------------------------|
A|-5-5-5-5-8-8-7-7-----------------3-3-3-3-3-3-3-3-----------------|
D|-----------------5-5-5-5-8-8-7-7-----------------3-3-3-3-3-3-3-3-|

G|------------------------------------------------------------------|
D|------------------------------------------------------------------|
A|-5-5-5-5-5-5-5-5----------------------------------3-3-3-3-3-3-3-3-|
D|-----------------5-5-5-5-5-5-5-5--3-3-3-3-3-3-3-3-----------------|


Bridge

G|--------------------|
D|--------------------|
A|--------9--8--------| x2
D|--0--0--------8-8---|

G|--------------------------|
D|--------------------------|
A|--------9--8--------------| x2
D|--0--0--------8--8--8h10--|

G|--------------------|
D|--------------------|
A|--------9--8--------|
D|--0--0--------8-8---|

G|-----------------------------------------------------------------|
D|-----------------------------------------------------------------|
A|-3-3-3-3-3-3-3-3-----------------5-5-5-5-5-5-5-5-----------------|
D|-----------------3-3-3-3-3-3-3-3-----------------5-5-5-5-5-5-5-5-|

G|-----------------------------------------------------------------|
D|-----------------------------------------------------------------|
A|-3-3-3-3-3-3-3-3---------------------------------5-5-5-5-5-5-5-5-|
D|-----------------3-3-3-3-3-3-3-3-5-5-5-5-5-5-5-5-----------------|
Repeat Chorus 2

Outro

G|--------------------------------------------------|
D|--------------------------------------------------|
A|---------------------------------------7-7-7-7-8--| x2
D|-3--2--3--2----7-7-7-7-8---3--2--3--2-------------|


(let the open notes ring)
G|-----------------------------|
D|-----------------------------|
A|-----------------------------|
D|-0-------------0-------------|

            
            
Suggest correction
Creating personal tab
Creating personal tab
You can edit any tab online and save it as your Personal.

You can edit, replace or remove any tab part or add personal notes – all changes will be seen only by you.

Personal tabs can be accessed anytime from any device, even offline.
Learn more »
Give kudos to tab author, rate the tab!
1 2 3 4 5
comments
print report bad tab
guest
You may want to rate the tab now too:
select rating
Wanna post a correction for this tab? Suggest correction