Oops, an error
Loading. Please wait.

Silence Is The Enemy bass

822 views 1 this week
2 commentsread comments
1 2 3 4 5
2 more votes to show rating
add to favorites
×
Save as Personal and add changes to this tab that will be seen only by you. Learn more ›
×
You can save this tab as Personal to edit and correct it or add notes. All changes will be seen only by you. Learn more »
launch autoscroll
font size
0
reset
guitar tuner
edit
Autoscroll
slow
fast
+/-
esc
set tempo
stop
-------------------------------------------------------------------------------      
                              Silence Is The Enemy
-------------------------------------------------------------------------------
Band:Papa roacH
Tabbed by: MarianSVK (Big Fan From Slovakia)
E-mail: marian.blacksoul@gmail.com

Tuning:CGCF (DROP C)

I don't think that this is 100% accuracy and correct :) maybe 80%

Listen The Song i give you only tones in chorus sorry my friends :)



Intro
Start Riff
First Verse
Before Chorus
Chorus
After Chorus
Second Verse
Before Chorus
2xChorus
Intro Again
2xChorus
End Riff



Intro Piano


Start Riff/Chorus
F|--------------------|
C|--------------------|
G|------3-1-----------|
C|--0-3-----5-8-7-5-7-|

F|-----------------------|
C|-----------------------|
G|------3-1-----12-10-12-|
C|--0-3-----5-8----------|

First Verse
F|-----|
C|-----|
G|-5/--|
C|-----|

Before Chorus
F|--------------|
C|--------------|
G|--------------|
C|-12/-3/-8/-5/-|

Chorus
F|--------------------|
C|--------------------|
G|------3-1-----------|
C|--0-3-----5-8-7-5-7-|

F|-----------------------|
C|-----------------------|
G|------3-1-----12-10-12-|
C|--0-3-----5-8----------|

After Chorus
F|-----------------|
C|-----------------|
G|-----------------|
C|-0---3---8---5---|

Second Verse
F|---------------------------------------------------------------------|
C|---------------------------------------------------------------------|
G|-5-5---8-8-8-----------------------5-5-----8-8-8---------------------|
C|---------------8-8-8---10-10-10--------------------8-8-8---5-5-5-5---|

F|-----------------------------------------|
C|-----------------------------------------|
G|-5-5---8-8-8-------------------------5-5-|
C|---------------8-8-8---10-10-10----------|


Before Chorus
F|--------------|
C|--------------|
G|--------------|
C|-12/-3/-8/-5/-|

Chorus
F|--------------------|
C|--------------------|
G|------3-1-----------|
C|--0-3-----5-8-7-5-7-|

F|--------------------|
C|--------------------|
G|------3-1-----------|
C|--0-3-----5-8-7-5-7-|

F|--------------------|
C|--------------------|
G|------3-1-----------|
C|--0-3-----5-8-7-5-7-|

F|-------------------------|
C|-------------------------|
G|------3-1-----12-10-12---|
C|--0-3-----5-8----------0-|


Intro Piano


Chorus
F|--------------------|
C|--------------------|
G|------3-1-----------|
C|--0-3-----5-8-7-5-7-|

F|--------------------|
C|--------------------|
G|------3-1-----------|
C|--0-3-----5-8-7-5-7-|

F|--------------------|
C|--------------------|
G|------3-1-----------|
C|--0-3-----5-8-7-5-7-|

F|-----------------------|
C|-----------------------|
G|------3-1-----12-10-12-|
C|--0-3-----5-8----------|

End Riff
F|-------------------------------|
C|-------------------------------|
G|-------33333333-------33333333-|
C|0-6/-0---------0-6/-0----------|

| /  slide up

            
            
Suggest correction
Creating personal tab
Creating personal tab
You can edit any tab online and save it as your Personal.

You can edit, replace or remove any tab part or add personal notes – all changes will be seen only by you.

Personal tabs can be accessed anytime from any device, even offline.
Learn more »
Give kudos to tab author, rate the tab!
1 2 3 4 5
comments
print report bad tab
2 comments total.
0 reply
MarianSVK 32 Mar 03, 2013 12:12 PM

Second Verse

F|---------------------------------------------------------------------|
C|---------------------------------------------------------------------|
G|-5-5---8-8-8-----------------------5-5-5---8-8-8---------------------|
C|---------------8-8-8---10-10-10--------------------8-8-8---5-5-5-5---|

F|-----------------------------------------|
C|-----------------------------------------|
G|-5-5---8-8-8-----------------------5-5-5-|
C|---------------8-8-8---10-10-10----------|

0 reply
MarianSVK 32 Mar 04, 2013 01:37 PM

GOD DAMN xD NOW OK

Second Verse

F|---------------------------------------------------------------------|
C|---------------------------------------------------------------------|
G|-5-5---8-8-8-----------------------5-5-----8-8-8---------------------|
C|---------------8-8-8---10-10-10--------------------8-8-8---5-5-5-5---|

F|-----------------------------------------|
C|-----------------------------------------|
G|-5-5---8-8-8-------------------------5-5-|
C|---------------8-8-8---10-10-10----------|

guest
You may want to rate the tab now too:
select rating
Wanna post a correction for this tab? Suggest correction