Oops, an error
Loading. Please wait.

Thrown Away tab

version 2
version 2

Whole song

Interactive

3,012 views 1 this week
5 commentsread comments
1 2 3 4 5
x 4
add to favorites
×
Save as Personal and add changes to this tab that will be seen only by you. Learn more ›
×
You can save this tab as Personal to edit and correct it or add notes. All changes will be seen only by you. Learn more »
launch autoscroll
font size
0
reset
how to read this tab
guitar tuner
edit
Autoscroll
slow
fast
+/-
esc
set tempo
stop
Dropped-D tuning (DADGBE) low-to-high        
tab by carlos this is the right way 2 play it i saw them play live any comments e-mail me 
blackmagic4jc@aol.com

------------------------------------------------------------------------------
------------------------------------------------------------------------------
------------------------------------------------------------------------------
-2-2---2-0-2-2---2-0-2-2---0-3-3----3-0-3-3----3-0-3-3---0--------------------
-2-2---2-0-2-2---2-0-2-2---0-3-3----3-0-3-3----3-0-3-3---0--------------------
-2-2---2-0-2-2---2-0-2-2---0-3-3----3-0-3-3----3-0-3-3---0--------------------
 Intro and Fill Thingy                                                        

------------------------------------------------------------------------------
------------------------------------------------------------------------------
------------------------------------------------------------------------------
-2-2-2--2-2-2--2-2-2--2-2-0--3-3-3--3-3-3--3-3-3--3-3-0-----------------------
-2-2-2--2-2-2--2-2-2--2-2-0--3-3-3--3-3-3--3-3-3--3-3-0-----------------------
-2-2-2--2-2-2--2-2-2--2-2-0--3-3-3--3-3-3--3-3-3--3-3-0-----------------------
 Verse and Fill Pt. 2                                                         

------------------------------------------------------------------------------
------------------------------------------------------------------------------
------------------------------------------------------------------------------
-9-9-9-9-9-9-9-9-9-9-9-9-9-9-9-9-10-10-10-10-10-10-10-10-10-10-10-10-10-10----
-9-9-9-9-9-9-9-9-9-9-9-9-9-9-9-9-10-10-10-10-10-10-10-10-10-10-10-10-10-10----
-9-9-9-9-9-9-9-9-9-9-9-9-9-9-9-9-10-10-10-10-10-10-10-10-10-10-10-10-10-10----
 Chorus pt.1                                                                  

------------------------------------------------------------------------------
------------------------------------------------------------------------------
------------------------------------------------------------------------------
-10-10-9-9-9-9-9-9-9-9-9-9-9-9-9-9-9-9-6-6-6-6-6-6-6-6-6-6-6-6-6-6-6-6--------
-10-10-9-9-9-9-9-9-9-9-9-9-9-9-9-9-9-9-6-6-6-6-6-6-6-6-6-6-6-6-6-6-6-6--------
-10-10-9-9-9-9-9-9-9-9-9-9-9-9-9-9-9-9-6-6-6-6-6-6-6-6-6-6-6-6-6-6-6-6--------
                                                                              

------------------------------------------------------------------------------
------------------------------------------------------------------------------
-----5^----5^----5^-----------5^----5^----5^----------------------------------
-2-2---2-2---2-2---2-2-0--3-3---3-3---3-3---3-3-0-----------------------------
-2-2---2-2---2-2---2-2-0--3-3---3-3---3-3---3-3-0-----------------------------
-2-2---2-2---2-2---2-2-0--3-3---3-3---3-3---3-3-0-----------------------------
                                                                              

------------------------------------------------------------------------------
------------------------------------------------------------------------------
------------------------------------------------------------------------------
------------------------------------------------------------------------------
-------5^----------------5^---------------------------------------------------
-2^-2^----2^-2^-5^-3^-3^----3^-3^-5^------------------------------------------
 Bridge                                                                       

------------------------------------------------------------------------------
------------------------------------------------------------------------------
-----------------------------------------------------------------10-10-10-10--
-8-8-8-8-8-8-8-8-8-8-8-8-8-8-8-8-8-8-8-8-8-8-8-8-8-8-8-8-8-8-8-8-10-10-10-10--
-8-8-8-8-8-8-8-8-8-8-8-8-8-8-8-8-6-6-6-6-6-6-6-6-6-6-6-6-6-6-6-6-8--8--8--8---
-8-8-8-8-8-8-8-8-8-8-8-8-8-8-8-8-8-8-8-8-8-8-8-8-8-8-8-8-8-8-8-8--------------
 Outro                                                                        

------------------------------------------------------------------------------
------------------------------------------------------------------------------
-10-10-10-10-10-10-10-10-10-----10-10-10-10-10-10-10-10-10-10-10-10----10-10--
-10-10-10-10-10-10-10-10-10-----10-10-10-10-10-10-10-10-10-10-10-10----10-10--
-8--8--8--8--8--8--8--8--8------8--8--8--8--8--8--8--8--8--8--8--8-----8--8---
------------------------------------------------------------------------------
                                                                              

------------------------------------------------------------------------------
------------------------------------------------------------------------------
-10-10-10-10-10-10-10-10-10-10-10---------------------------------------------
-10-10-10-10-10-10-10-10-10-10-10----3-3-3-3-3-3-3-3-3-3-3-3-3----------------
-8--8--8--8--8--8--8--8--8--8--8-----3-3-3-3-3-3-3-3-3-3-3-3-3----------------
-------------------------------------3-3-3-3-3-3-3-3-3-3-3-3-3----------------

            
            
Suggest correction
Creating personal tab
Creating personal tab
You can edit any tab online and save it as your Personal.

You can edit, replace or remove any tab part or add personal notes – all changes will be seen only by you.

Personal tabs can be accessed anytime from any device, even offline.
Learn more »
comments
print report bad tab
5 comments total. Showing first comments.
0 reply
xtreme_ryguy 95 Apr 11, 2002 08:00 PM

a great tab for a great song nice job

0 reply
kornflipsk8er 130 Mar 29, 2003 07:00 PM

perfact except during the chorus the part before 10 goes back 9 it goes like this
|-------------------------------..
|-------------------------------..
|-------------------7-7-7-7-----..
|-10-10-10-10-10-10-7-7-7-7-9-9-..etc.
|-10-10-10-10-10-10-7-7-7-7-9-9-..
|-10-10-10-10-10-10---------9-9-..

0 reply
kornflipsk8er 130 Mar 29, 2003 07:00 PM

umm.it looks all mest on the post but i think you get the idea.

guest
Wanna post a correction for this tab? Suggest correction