Oops, an error
Loading. Please wait.
We have an official To Be Loved tab made by UG professional guitarists. Check out the tab »
×
45,398 views 12 this week
12 commentsread comments
1 2 3 4 5
x 10
add to favorites
×
Save as Personal and add changes to this tab that will be seen only by you. Learn more ›
×
You can save this tab as Personal to edit and correct it or add notes. All changes will be seen only by you. Learn more »
launch autoscroll
font size
0
reset
how to read this tab
guitar tuner
edit
Autoscroll
slow
fast
+/-
esc
set tempo
stop
Artist : Papa Roach
Album  : The Paramour Sessions
Song   : To Be Loved
Tuning : Drop D

Intro
  Q=191
  C5/G G5   C5/G Eb5  F5   Eb5  C5/G G5   C5/G Eb5  F5   Eb5
 4/4
  Gtr I
  Q.   Q.   Q    Q.   Q.   Q    Q.   Q.   Q    Q.   Q.   Q
|--------------|--------------|--------------|---------------|
|--------------|--------------|--------------|---------------|
|--------------|--------------|--------------|---------------|
|-5----5----5--|-1----3----1--|-5----5----5--|-1----3----1---|
|-3----5----3--|-1----3----1--|-3----5----3--|-1----3----1---|
|-5----5----5--|-1----3----1--|-5----5----5--|-1----3----1---|


    C5/G      G5        C5/G    Eb5       F5        Eb5
     Q.        Q.        Q       Q.        Q.        Q
||----------------------------|---------------------------|
||o---------------------------|---------------------------|
||----------------------------|---------------------------|
||---5---------5---------5----|--1---------3---------1----|
||o--3---------5---------3----|--1---------3---------1----|
||---5---------5---------5----|--1---------3---------1----|
|
|   Gtr II
|    E   E  E  E   E  E  E  E    E   E  E  E   E  E  E  E
||----------------------------|---------------------------|
||o-13--13-13-13--13-13-13-13-|-13--13-13-13--13-13-13-13-|
||--12--12-12-12--12-12-12-12-|-12--12-12-12--12-12-12-12-|
||--10--10-10-10--10-10-10-10-|-10--10-10-10--10-10-10-10-|
||o---------------------------|---------------------------|
||----------------------------|---------------------------|


  C5/G      G5        C5/G    Eb5       F5        Eb5
   Q.        Q.        Q       Q.        Q.        Q
|---------------------------|---------------------------|
|---------------------------|---------------------------|
|---------------------------|---------------------------|
|--5---------5---------5----|--1---------3---------1----|
|--3---------5---------3----|--1---------3---------1----|
|--5---------5---------5----|--1---------3---------1----|
|
|  E   E  E  E   E  E  E  E    E   E  E  E   E  E  E  E
|---------------------------|---------------------------|
|-16--16-16-16--16-16-16-16-|-16--16-16-16--16-16-16-16-|
|-15--15-15-15--15-15-15-15-|-15--15-15-15--15-15-15-15-|
|-13--13-13-13--13-13-13-13-|-13--13-13-13--13-13-13-13-|
|---------------------------|---------------------------|
|---------------------------|---------------------------|


  C5/G      G5        C5/G    Eb5       F5        Eb5
   Q.        Q.        Q       Q.        Q.        Q
|---------------------------|---------------------------|
|---------------------------|---------------------------|
|---------------------------|---------------------------|
|--5---------5---------5----|--1---------3---------1----|
|--3---------5---------3----|--1---------3---------1----|
|--5---------5---------5----|--1---------3---------1----|
|
|  E   E  E  E   E  E  E  E    E   E  E  E   E  E  E  E
|---------------------------|---------------------------|
|-16--16-16-16--16-16-16-16-|-16--16-16-16--16-16-16-16-|
|-15--15-15-15--15-15-15-15-|-15--15-15-15--15-15-15-15-|
|-13--13-13-13--13-13-13-13-|-13--13-13-13--13-13-13-13-|
|-11--11-11-11--11-11-11-11-|-11--11-11-11--11-11-11-11-|
|---------------------------|---------------------------|


  C5/G      G5        C5/G    Eb5       F5        Eb5
   Q.        Q.        Q       Q.        Q.        Q
|---------------------------|-----------------------------||
|---------------------------|----------------------------o||
|---------------------------|-----------------------------||
|--5---------5---------5----|--1---------3---------1------||
|--3---------5---------3----|--1---------3---------1-----o||
|--5---------5---------5----|--1---------3---------1------||
|
|  E   E  E  E   E  E  E  E    E   E  E  E   E  E  E  E
|---------------------------|-----------------------------||
|-16--16-16-16--16-16-16-16-|-16--16-16-16--16-16-16-16--o||
|-15--15-15-15--15-15-15-15-|-15--15-15-15--15-15-15-15---||
|-13--13-13-13--13-13-13-13-|-13--13-13-13--13-13-13-13---||
|-11--11-11-11--11-11-11-11-|-11--11-11-11--11-11-11-11--o||
|---------------------------|-----------------------------||


 Pre-Chorus
  C5/G G5   C5/G Eb5  F5   Eb5  C5/G G5   C5/G Eb5  F5
  Q.   Q.   Q    Q.   Q.   Q    Q.   Q.   Q    Q.   Q.   Q
|--------------|--------------|--------------|---------------|
|--------------|--------------|--------------|---------------|
|--------------|--------------|--------------|---------------|
|-5----5----5--|-1----3----1--|-5----5----5--|-1----3--------|
|-3----5----3--|-1----3----1--|-3----5----3--|-1----3--------|
|-5----5----5--|-1----3----1--|-5----5----5--|-1----3--------|


 Chorus
  C5                                  Bb5
  Q  Q.   E E E   +E  E E E E E E E   Q  Q.   E E E   +E  E E E E E E E
|---------------|-------------------|---------------|--------------------|
|---------------|-------------------|---------------|--------------------|
|-5--5----5-5-5-|-(5)-5-5-5-5-5-5-5-|---------------|--------------------|
|-5--5----5-5-5-|-(5)-5-5-5-5-5-5-5-|-8--8----8-8-8-|-(8)-8-8-8-8-8-8-8--|
|-3--3----3-3-3-|-(3)-3-3-3-3-3-3-3-|-8--8----8-8-8-|-(8)-8-8-8-8-8-8-8--|
|---------------|-------------------|-8--8----8-8-8-|-(8)-8-8-8-8-8-8-8--|


  Ab5                                 F5
  Q  Q.   E E E   +E  E E E E E E E   Q  Q.   E E E   +E  E E E E E E E
|---------------|-------------------|---------------|--------------------|
|---------------|-------------------|---------------|--------------------|
|---------------|-------------------|---------------|--------------------|
|-6--6----6-6-6-|-(6)-6-6-6-6-6-6-6-|-3--3----3-3-3-|-(3)-3-3-3-3-3-3-3--|
|-6--6----6-6-6-|-(6)-6-6-6-6-6-6-6-|-3--3----3-3-3-|-(3)-3-3-3-3-3-3-3--|
|-6--6----6-6-6-|-(6)-6-6-6-6-6-6-6-|-3--3----3-3-3-|-(3)-3-3-3-3-3-3-3--|


  C5                                  Ab5
  Q  Q.   E E E   +E  E E E E E E E   Q  Q.   E E E   +E  E E E E E E E
|---------------|-------------------|---------------|--------------------|
|---------------|-------------------|---------------|--------------------|
|-5--5----5-5-5-|-(5)-5-5-5-5-5-5-5-|---------------|--------------------|
|-5--5----5-5-5-|-(5)-5-5-5-5-5-5-5-|-6--6----6-6-6-|-(6)-6-6-6-6-6-6-6--|
|-3--3----3-3-3-|-(3)-3-3-3-3-3-3-3-|-6--6----6-6-6-|-(6)-6-6-6-6-6-6-6--|
|---------------|-------------------|-6--6----6-6-6-|-(6)-6-6-6-6-6-6-6--|


  F5                                  Eb5            Db5/Ab
  Q  Q.   E E E   +E  E E E E E E E   Q  Q.   E Q    Q  Q.   E Q
|---------------|-------------------|--------------|---------------|
|---------------|-------------------|--------------|---------------|
|---------------|-------------------|--------------|---------------|
|-3--3----3-3-3-|-(3)-3-3-3-3-3-3-3-|-1--1----1-1--|-6--6----6-6---|
|-3--3----3-3-3-|-(3)-3-3-3-3-3-3-3-|-1--1----1-1--|-4--4----4-4---|
|-3--3----3-3-3-|-(3)-3-3-3-3-3-3-3-|-1--1----1-1--|-6--6----6-6---|


 Verse
  C5
  Gtr III
   H           E  q     E    H           E  q     E
|-------------------------|-------------------------|
|-------------------------|-------------------------|
|--5--------------5-----5-|--5--------------5-----5-|
|--5--------------5-----5-|--5--------------5-----5-|
|--3--------------3-----3-|--3--------------3-----3-|
|-------------------------|-------------------------|
|
| Gtr IV
|  E  E  E  E  E  E  E  E    E  E  E  E  E  E  E  E
|-------------------------|-------------------------|
|-------------------------|-------------------------|
|----------12-12-12-------|----------10-10-10-------|
|-10-10-10----------10-10-|-13-13-13----------13-13-|
|-------------------------|-------------------------|
|-------------------------|-------------------------|


  Ab5
   H           E  q     E    H           E  q     E
|-------------------------|--------------------------|
|-------------------------|--------------------------|
|-------------------------|--------------------------|
|--6--------------6-----6-|--6--------------6-----6--|
|--6--------------6-----6-|--6--------------6-----6--|
|--6--------------6-----6-|--6--------------6-----6--|
|
|  E  E  E  E  E  E  E  E    E  E  E  E  E  E  E  E
|-------------------------|--------------------------|
|-------------------------|--------------------------|
|----------12-12-12-------|----------10-10-10--------|
|-------------------------|-13-13-13----------13-13--|
|-11-11-11----------11-11-|--------------------------|
|-------------------------|--------------------------|


  F5
  H       E q   E   H         E  q   E
|-----------------|--------------------|
|-----------------|--------------------|
|-----------------|--------------------|
|-3---------3---3-|-3------------3---3-|
|-3---------3---3-|-3------------3---3-|
|-3---------3---3-|-3------------3---3-|
|
| E E E E E E E E   E E E  E  E  E E E
|-----------------|--------------------|
|-------8-8-8-----|--------------------|
|-----------------|-8-8-8-10-10-10-8-8-|
|-----------------|--------------------|
|-8-8-8-------8-8-|--------------------|
|-----------------|--------------------|


  G5
   H           E  q     E    H           E  q     E
|-------------------------|--------------------------|
|-------------------------|--------------------------|
|-------------------------|--------------------------|
|--5--------------5-----5-|--5--------------5-----5--|
|--5--------------5-----5-|--5--------------5-----5--|
|--5--------------5-----5-|--5--------------5-----5--|
|
|  E  E  E  E  E  E  E  E    E  E  E  E  E  E  E  E
|-------------------------|--------------------------|
|-------------------------|--------------------------|
|----------12-12-12-------|----------10-10-10--------|
|-------------------------|-13-13-13----------13-13--|
|-10-10-10----------10-10-|--------------------------|
|-------------------------|--------------------------|


  C5
   H           E  q     E    H           E  q     E
|-------------------------|-------------------------|
|-------------------------|-------------------------|
|--5--------------5-----5-|--5--------------5-----5-|
|--5--------------5-----5-|--5--------------5-----5-|
|--3--------------3-----3-|--3--------------3-----3-|
|-------------------------|-------------------------|
|
|  E  E  E  E  E  E  E  E    E  E  E  E  E  E  E  E
|-------------------------|-------------------------|
|-------------------------|-------------------------|
|----------12-12-12-------|----------10-10-10-------|
|-10-10-10----------10-10-|-13-13-13----------13-13-|
|-------------------------|-------------------------|
|-------------------------|-------------------------|


  Ab5
   H           E  q     E    H           E  q     E
|-------------------------|--------------------------|
|-------------------------|--------------------------|
|-------------------------|--------------------------|
|--6--------------6-----6-|--6--------------6-----6--|
|--6--------------6-----6-|--6--------------6-----6--|
|--6--------------6-----6-|--6--------------6-----6--|
|
|  E  E  E  E  E  E  E  E    E  E  E  E  E  E  E  E
|-------------------------|--------------------------|
|-------------------------|--------------------------|
|----------12-12-12-------|----------10-10-10--------|
|-------------------------|-13-13-13----------13-13--|
|-11-11-11----------11-11-|--------------------------|
|-------------------------|--------------------------|


  F5
  H       E q   E   H         E  q   E
|-----------------|--------------------|
|-----------------|--------------------|
|-----------------|--------------------|
|-3---------3---3-|-3------------3---3-|
|-3---------3---3-|-3------------3---3-|
|-3---------3---3-|-3------------3---3-|
|
| E E E E E E E E   E E E  E  E  E E E
|-----------------|--------------------|
|-------8-8-8-----|--------------------|
|-----------------|-8-8-8-10-10-10-8-8-|
|-----------------|--------------------|
|-8-8-8-------8-8-|--------------------|
|-----------------|--------------------|


  Eb5                       Db5/Ab
   H           E  q     E    H           E  q     E
|-------------------------|--------------------------|
|-------------------------|--------------------------|
|-------------------------|--------------------------|
|--1--------------1-----1-|--6--------------6-----6--|
|--1--------------1-----1-|--4--------------4-----4--|
|--1--------------1-----1-|--6--------------6-----6--|
|
|  E  E  E  E  E  E  E  E    E  E  E  E  E  E  E  E
|-------------------------|--------------------------|
|-------------------------|--------------------------|
|----------12-12-12-------|----------10-10-10--------|
|-------------------------|-13-13-13----------13-13--|
|-10-10-10----------10-10-|--------------------------|
|-------------------------|--------------------------|


 Chorus
  C5                                  Bb5
  Gtr I
  Q  Q.   E E E   +E  E E E E E E E   Q  Q.   E E E   +E  E E E E E E E
|---------------|-------------------|---------------|--------------------|
|---------------|-------------------|---------------|--------------------|
|-5--5----5-5-5-|-(5)-5-5-5-5-5-5-5-|---------------|--------------------|
|-5--5----5-5-5-|-(5)-5-5-5-5-5-5-5-|-8--8----8-8-8-|-(8)-8-8-8-8-8-8-8--|
|-3--3----3-3-3-|-(3)-3-3-3-3-3-3-3-|-8--8----8-8-8-|-(8)-8-8-8-8-8-8-8--|
|---------------|-------------------|-8--8----8-8-8-|-(8)-8-8-8-8-8-8-8--|


  Ab5                                 F5
  Q  Q.   E E E   +E  E E E E E E E   Q  Q.   E E E   +E  E E E E E E E
|---------------|-------------------|---------------|--------------------|
|---------------|-------------------|---------------|--------------------|
|---------------|-------------------|---------------|--------------------|
|-6--6----6-6-6-|-(6)-6-6-6-6-6-6-6-|-3--3----3-3-3-|-(3)-3-3-3-3-3-3-3--|
|-6--6----6-6-6-|-(6)-6-6-6-6-6-6-6-|-3--3----3-3-3-|-(3)-3-3-3-3-3-3-3--|
|-6--6----6-6-6-|-(6)-6-6-6-6-6-6-6-|-3--3----3-3-3-|-(3)-3-3-3-3-3-3-3--|


  C5                                  Ab5
  Q  Q.   E E E   +E  E E E E E E E   Q  Q.   E E E   +E  E E E E E E E
|---------------|-------------------|---------------|--------------------|
|---------------|-------------------|---------------|--------------------|
|-5--5----5-5-5-|-(5)-5-5-5-5-5-5-5-|---------------|--------------------|
|-5--5----5-5-5-|-(5)-5-5-5-5-5-5-5-|-6--6----6-6-6-|-(6)-6-6-6-6-6-6-6--|
|-3--3----3-3-3-|-(3)-3-3-3-3-3-3-3-|-6--6----6-6-6-|-(6)-6-6-6-6-6-6-6--|
|---------------|-------------------|-6--6----6-6-6-|-(6)-6-6-6-6-6-6-6--|


  F5                                  Eb5            Db5/Ab
  Q  Q.   E E E   +E  E E E E E E E   Q  Q.   E Q    Q  Q.   E Q
|---------------|-------------------|--------------|---------------|
|---------------|-------------------|--------------|---------------|
|---------------|-------------------|--------------|---------------|
|-3--3----3-3-3-|-(3)-3-3-3-3-3-3-3-|-1--1----1-1--|-6--6----6-6---|
|-3--3----3-3-3-|-(3)-3-3-3-3-3-3-3-|-1--1----1-1--|-4--4----4-4---|
|-3--3----3-3-3-|-(3)-3-3-3-3-3-3-3-|-1--1----1-1--|-6--6----6-6---|


 Verse
  C5                          Ab5
  Gtr III
  H    E q  E   H    E q  E   H    E q  E   H    E q  E
|-------------|-------------|-------------|--------------|
|-------------|-------------|-------------|--------------|
|-5------5--5-|-5------5--5-|-------------|--------------|
|-5------5--5-|-5------5--5-|-6------6--6-|-6------6--6--|
|-3------3--3-|-3------3--3-|-6------6--6-|-6------6--6--|
|-------------|-------------|-6------6--6-|-6------6--6--|


  F5                          G5
  H    E q  E   H    E q  E   H    E q  E   H    E q  E
|-------------|-------------|-------------|--------------|
|-------------|-------------|-------------|--------------|
|-------------|-------------|-------------|--------------|
|-3------3--3-|-3------3--3-|-5------5--5-|-5------5--5--|
|-3------3--3-|-3------3--3-|-5------5--5-|-5------5--5--|
|-3------3--3-|-3------3--3-|-5------5--5-|-5------5--5--|


  C5
   H           E  q     E    H           E  q     E
|-------------------------|-------------------------|
|-------------------------|-------------------------|
|--5--------------5-----5-|--5--------------5-----5-|
|--5--------------5-----5-|--5--------------5-----5-|
|--3--------------3-----3-|--3--------------3-----3-|
|-------------------------|-------------------------|
|
| Gtr IV
|  E  E  E  E  E  E  E  E    E  E  E  E  E  E  E  E
|-------------------------|-------------------------|
|-------------------------|-------------------------|
|----------12-12-12-------|----------10-10-10-------|
|-10-10-10----------10-10-|-13-13-13----------13-13-|
|-------------------------|-------------------------|
|-------------------------|-------------------------|


  Ab5
   H           E  q     E    H           E  q     E
|-------------------------|--------------------------|
|-------------------------|--------------------------|
|-------------------------|--------------------------|
|--6--------------6-----6-|--6--------------6-----6--|
|--6--------------6-----6-|--6--------------6-----6--|
|--6--------------6-----6-|--6--------------6-----6--|
|
|  E  E  E  E  E  E  E  E    E  E  E  E  E  E  E  E
|-------------------------|--------------------------|
|-------------------------|--------------------------|
|----------12-12-12-------|----------10-10-10--------|
|-------------------------|-13-13-13----------13-13--|
|-11-11-11----------11-11-|--------------------------|
|-------------------------|--------------------------|


  F5
  H       E q   E   H         E  q   E
|-----------------|--------------------|
|-----------------|--------------------|
|-----------------|--------------------|
|-3---------3---3-|-3------------3---3-|
|-3---------3---3-|-3------------3---3-|
|-3---------3---3-|-3------------3---3-|
|
| E E E E E E E E   E E E  E  E  E E E
|-----------------|--------------------|
|-------8-8-8-----|--------------------|
|-----------------|-8-8-8-10-10-10-8-8-|
|-----------------|--------------------|
|-8-8-8-------8-8-|--------------------|
|-----------------|--------------------|


  Eb5                       Db5/Ab
   H           E  q     E    H           E  q     E
|-------------------------|--------------------------|
|-------------------------|--------------------------|
|-------------------------|--------------------------|
|--1--------------1-----1-|--6--------------6-----6--|
|--1--------------1-----1-|--4--------------4-----4--|
|--1--------------1-----1-|--6--------------6-----6--|
|
|  E  E  E  E  E  E  E  E    E  E  E  E  E  E  E  E
|-------------------------|--------------------------|
|-------------------------|--------------------------|
|----------12-12-12-------|----------10-10-10--------|
|-------------------------|-13-13-13----------13-13--|
|-10-10-10----------10-10-|--------------------------|
|-------------------------|--------------------------|


 Chorus
  C5                                  Bb5
  Gtr I
  Q  Q.   E E E   +E  E E E E E E E   Q  Q.   E E E   +E  E E E E E E E
|---------------|-------------------|---------------|--------------------|
|---------------|-------------------|---------------|--------------------|
|-5--5----5-5-5-|-(5)-5-5-5-5-5-5-5-|---------------|--------------------|
|-5--5----5-5-5-|-(5)-5-5-5-5-5-5-5-|-8--8----8-8-8-|-(8)-8-8-8-8-8-8-8--|
|-3--3----3-3-3-|-(3)-3-3-3-3-3-3-3-|-8--8----8-8-8-|-(8)-8-8-8-8-8-8-8--|
|---------------|-------------------|-8--8----8-8-8-|-(8)-8-8-8-8-8-8-8--|


  Ab5                                 F5
  Q  Q.   E E E   +E  E E E E E E E   Q  Q.   E E E   +E  E E E E E E E
|---------------|-------------------|---------------|--------------------|
|---------------|-------------------|---------------|--------------------|
|---------------|-------------------|---------------|--------------------|
|-6--6----6-6-6-|-(6)-6-6-6-6-6-6-6-|-3--3----3-3-3-|-(3)-3-3-3-3-3-3-3--|
|-6--6----6-6-6-|-(6)-6-6-6-6-6-6-6-|-3--3----3-3-3-|-(3)-3-3-3-3-3-3-3--|
|-6--6----6-6-6-|-(6)-6-6-6-6-6-6-6-|-3--3----3-3-3-|-(3)-3-3-3-3-3-3-3--|


  C5                                  Ab5
  Q  Q.   E E E   +E  E E E E E E E   Q  Q.   E E E   +E  E E E E E E E
|---------------|-------------------|---------------|--------------------|
|---------------|-------------------|---------------|--------------------|
|-5--5----5-5-5-|-(5)-5-5-5-5-5-5-5-|---------------|--------------------|
|-5--5----5-5-5-|-(5)-5-5-5-5-5-5-5-|-6--6----6-6-6-|-(6)-6-6-6-6-6-6-6--|
|-3--3----3-3-3-|-(3)-3-3-3-3-3-3-3-|-6--6----6-6-6-|-(6)-6-6-6-6-6-6-6--|
|---------------|-------------------|-6--6----6-6-6-|-(6)-6-6-6-6-6-6-6--|


  F5                                  Eb5            Db5/Ab
  Q  Q.   E E E   +E  E E E E E E E   Q  Q.   E Q    Q  Q.   E Q
|---------------|-------------------|--------------|---------------|
|---------------|-------------------|--------------|---------------|
|---------------|-------------------|--------------|---------------|
|-3--3----3-3-3-|-(3)-3-3-3-3-3-3-3-|-1--1----1-1--|-6--6----6-6---|
|-3--3----3-3-3-|-(3)-3-3-3-3-3-3-3-|-1--1----1-1--|-4--4----4-4---|
|-3--3----3-3-3-|-(3)-3-3-3-3-3-3-3-|-1--1----1-1--|-6--6----6-6---|


 Bridge
  C5
   E  E  E  E  E  E  E  E    E  E  E  E  E  E  E  E
|-------------------------|-------------------------|
|-------------------------|-------------------------|
|--5--5--5--5--5--5--5--5-|--5--5--5--5--5--5--5--5-|
|--5--5--5--5--5--5--5--5-|--5--5--5--5--5--5--5--5-|
|--3--3--3--3--3--3--3--3-|--3--3--3--3--3--3--3--3-|
|-------------------------|-------------------------|
|
| Gtr II
|  E  E  E  E  E  E  E  E    E  E  E  E  E  E  E  E
|-------------------------|-------------------------|
|-13-13-13-13-13-13-13-13-|-13-13-13-13-13-13-13-13-|
|-12-12-12-12-12-12-12-12-|-12-12-12-12-12-12-12-12-|
|-10-10-10-10-10-10-10-10-|-10-10-10-10-10-10-10-10-|
|-------------------------|-------------------------|
|-------------------------|-------------------------|


  Bb5
   E  E  E  E  E  E  E  E    E  E  E  E  E  E  E  E
|-------------------------|--------------------------|
|-------------------------|--------------------------|
|-------------------------|--------------------------|
|--8--8--8--8--8--8--8--8-|--8--8--8--8--8--8--8--8--|
|--8--8--8--8--8--8--8--8-|--8--8--8--8--8--8--8--8--|
|--8--8--8--8--8--8--8--8-|--8--8--8--8--8--8--8--8--|
|
|  E  E  E  E  E  E  E  E    E  E  E  E  E  E  E  E
|-------------------------|--------------------------|
|-16-16-16-16-16-16-16-16-|-16-16-16-16-16-16-16-16--|
|-15-15-15-15-15-15-15-15-|-15-15-15-15-15-15-15-15--|
|-13-13-13-13-13-13-13-13-|-13-13-13-13-13-13-13-13--|
|-------------------------|--------------------------|
|-------------------------|--------------------------|


  Ab5
   E  E  E  E  E  E  E  E    E  E  E  E  E  E  E  E
|-------------------------|-------------------------|
|-------------------------|-------------------------|
|-------------------------|-------------------------|
|--6--6--6--6--6--6--6--6-|--6--6--6--6--6--6--6--6-|
|--6--6--6--6--6--6--6--6-|--6--6--6--6--6--6--6--6-|
|--6--6--6--6--6--6--6--6-|--6--6--6--6--6--6--6--6-|
|
|  E  E  E  E  E  E  E  E    E  E  E  E  E  E  E  E
|-------------------------|-------------------------|
|-16-16-16-16-16-16-16-16-|-16-16-16-16-16-16-16-16-|
|-15-15-15-15-15-15-15-15-|-15-15-15-15-15-15-15-15-|
|-13-13-13-13-13-13-13-13-|-13-13-13-13-13-13-13-13-|
|-11-11-11-11-11-11-11-11-|-11-11-11-11-11-11-11-11-|
|-------------------------|-------------------------|


  F5
   E  E  E  E  E  E  E  E    E  E  E  E  E  E  E  E
|-------------------------|--------------------------|
|-------------------------|--------------------------|
|-------------------------|--------------------------|
|--3--3--3--3--3--3--3--3-|--3--3--3--3--3--3--3--3--|
|--3--3--3--3--3--3--3--3-|--3--3--3--3--3--3--3--3--|
|--3--3--3--3--3--3--3--3-|--3--3--3--3--3--3--3--3--|
|
|  E  E  E  E  E  E  E  E    E  E  E  E  E  E  E  E
|-------------------------|--------------------------|
|-16-16-16-16-16-16-16-16-|-16-16-16-16-16-16-16-16--|
|-15-15-15-15-15-15-15-15-|-15-15-15-15-15-15-15-15--|
|-13-13-13-13-13-13-13-13-|-13-13-13-13-13-13-13-13--|
|-11-11-11-11-11-11-11-11-|-11-11-11-11-11-11-11-11--|
|-------------------------|--------------------------|


  C5
   E  E  E  E  E  E  E  E    E  E  E  E  E  E  E  E
|-------------------------|-------------------------|
|-------------------------|-------------------------|
|--5--5--5--5--5--5--5--5-|--5--5--5--5--5--5--5--5-|
|--5--5--5--5--5--5--5--5-|--5--5--5--5--5--5--5--5-|
|--3--3--3--3--3--3--3--3-|--3--3--3--3--3--3--3--3-|
|-------------------------|-------------------------|
|
|  E  E  E  E  E  E  E  E    E  E  E  E  E  E  E  E
|-------------------------|-------------------------|
|-13-13-13-13-13-13-13-13-|-13-13-13-13-13-13-13-13-|
|-12-12-12-12-12-12-12-12-|-12-12-12-12-12-12-12-12-|
|-10-10-10-10-10-10-10-10-|-10-10-10-10-10-10-10-10-|
|-------------------------|-------------------------|
|-------------------------|-------------------------|


  Ab5
   E  E  E  E  E  E  E  E    E  E  E  E  E  E  E  E
|-------------------------|--------------------------|
|-------------------------|--------------------------|
|-------------------------|--------------------------|
|--6--6--6--6--6--6--6--6-|--6--6--6--6--6--6--6--6--|
|--6--6--6--6--6--6--6--6-|--6--6--6--6--6--6--6--6--|
|--6--6--6--6--6--6--6--6-|--6--6--6--6--6--6--6--6--|
|
|  E  E  E  E  E  E  E  E    E  E  E  E  E  E  E  E
|-------------------------|--------------------------|
|-16-16-16-16-16-16-16-16-|-16-16-16-16-16-16-16-16--|
|-15-15-15-15-15-15-15-15-|-15-15-15-15-15-15-15-15--|
|-13-13-13-13-13-13-13-13-|-13-13-13-13-13-13-13-13--|
|-------------------------|--------------------------|
|-------------------------|--------------------------|


  F5
   E  E  E  E  E  E  E  E    E  E  E  E  E  E  E  E
|-------------------------|-------------------------|
|-------------------------|-------------------------|
|-------------------------|-------------------------|
|--3--3--3--3--3--3--3--3-|--3--3--3--3--3--3--3--3-|
|--3--3--3--3--3--3--3--3-|--3--3--3--3--3--3--3--3-|
|--3--3--3--3--3--3--3--3-|--3--3--3--3--3--3--3--3-|
|
|  E  E  E  E  E  E  E  E    E  E  E  E  E  E  E  E
|-------------------------|-------------------------|
|-16-16-16-16-16-16-16-16-|-16-16-16-16-16-16-16-16-|
|-15-15-15-15-15-15-15-15-|-15-15-15-15-15-15-15-15-|
|-13-13-13-13-13-13-13-13-|-13-13-13-13-13-13-13-13-|
|-11-11-11-11-11-11-11-11-|-11-11-11-11-11-11-11-11-|
|-------------------------|-------------------------|


  Eb5                       Db5/Ab
   E  E  E  E  E  E  E  E    E  E  E  E  E  E  E  E
|-------------------------|--------------------------|
|-------------------------|--------------------------|
|-------------------------|--------------------------|
|--1--1--1--1--1--1--1--1-|--6--6--6--6--6--6--6--6--|
|--1--1--1--1--1--1--1--1-|--4--4--4--4--4--4--4--4--|
|--1--1--1--1--1--1--1--1-|--6--6--6--6--6--6--6--6--|
|
|  E  E  E  E  E  E  E  E    E  E  E  E  E  E  E  E
|-------------------------|--------------------------|
|-16-16-16-16-16-16-16-16-|-16-16-16-16-16-16-16-16--|
|-15-15-15-15-15-15-15-15-|-15-15-15-15-15-15-15-15--|
|-13-13-13-13-13-13-13-13-|-13-13-13-13-13-13-13-13--|
|-11-11-11-11-11-11-11-11-|-11-11-11-11-11-11-11-11--|
|-------------------------|--------------------------|


 Interlude
  Wx7          H    H
|------------|------------|
|------------|------------|
|------------|------------|
|------------|------x\----|
|------------|------x\----|
|------------|------x\----|


 Out-Chorus
  C5                                  Ab5
  Gtr I
  Q  Q.   E E E   +E  E E E E E E E   Q  Q.   E E E   +E  E E E E E E E
|---------------|-------------------|---------------|--------------------|
|---------------|-------------------|---------------|--------------------|
|-5--5----5-5-5-|-(5)-5-5-5-5-5-5-5-|---------------|--------------------|
|-5--5----5-5-5-|-(5)-5-5-5-5-5-5-5-|-6--6----6-6-6-|-(6)-6-6-6-6-6-6-6--|
|-3--3----3-3-3-|-(3)-3-3-3-3-3-3-3-|-6--6----6-6-6-|-(6)-6-6-6-6-6-6-6--|
|---------------|-------------------|-6--6----6-6-6-|-(6)-6-6-6-6-6-6-6--|


  F5                                  Eb5            Db5/Ab
  Q  Q.   E E E   +E  E E E E E E E   Q  Q.   E Q    Q  Q.   E Q
|---------------|-------------------|--------------|---------------|
|---------------|-------------------|--------------|---------------|
|---------------|-------------------|--------------|---------------|
|-3--3----3-3-3-|-(3)-3-3-3-3-3-3-3-|-1--1----1-1--|-6--6----6-6---|
|-3--3----3-3-3-|-(3)-3-3-3-3-3-3-3-|-1--1----1-1--|-4--4----4-4---|
|-3--3----3-3-3-|-(3)-3-3-3-3-3-3-3-|-1--1----1-1--|-6--6----6-6---|


  C5
   Q     Q.        E  E  E   +E   E  E  E  E  E  E  E
|--------------------------|--------------------------|
|--------------------------|--------------------------|
|--5-----5---------5--5--5-|-(5)--5--5--5--5--5--5--5-|
|--5-----5---------5--5--5-|-(5)--5--5--5--5--5--5--5-|
|--3-----3---------3--3--3-|-(3)--3--3--3--3--3--3--3-|
|--------------------------|--------------------------|
|
| Gtr II
|  E  E  E   E  E  E  E  E    E   E  E  E  E  E  E  E
|--------------------------|--------------------------|
|-13-13-13--13-13-13-13-13-|-13--13-13-13-13-13-13-13-|
|-12-12-12--12-12-12-12-12-|-12--12-12-12-12-12-12-12-|
|-10-10-10--10-10-10-10-10-|-10--10-10-10-10-10-10-10-|
|--------------------------|--------------------------|
|--------------------------|--------------------------|


  Bb5
   Q     Q.        E  E  E   +E   E  E  E  E  E  E  E
|--------------------------|---------------------------|
|--------------------------|---------------------------|
|--------------------------|---------------------------|
|--8-----8---------8--8--8-|-(8)--8--8--8--8--8--8--8--|
|--8-----8---------8--8--8-|-(8)--8--8--8--8--8--8--8--|
|--8-----8---------8--8--8-|-(8)--8--8--8--8--8--8--8--|
|
|  E  E  E   E  E  E  E  E    E   E  E  E  E  E  E  E
|--------------------------|---------------------------|
|-16-16-16--16-16-16-16-16-|-16--16-16-16-16-16-16-16--|
|-15-15-15--15-15-15-15-15-|-15--15-15-15-15-15-15-15--|
|-13-13-13--13-13-13-13-13-|-13--13-13-13-13-13-13-13--|
|--------------------------|---------------------------|
|--------------------------|---------------------------|


  Ab5
   Q     Q.        E  E  E   +E   E  E  E  E  E  E  E
|--------------------------|--------------------------|
|--------------------------|--------------------------|
|--------------------------|--------------------------|
|--6-----6---------6--6--6-|-(6)--6--6--6--6--6--6--6-|
|--6-----6---------6--6--6-|-(6)--6--6--6--6--6--6--6-|
|--6-----6---------6--6--6-|-(6)--6--6--6--6--6--6--6-|
|
|  E  E  E   E  E  E  E  E    E   E  E  E  E  E  E  E
|--------------------------|--------------------------|
|-16-16-16--16-16-16-16-16-|-16--16-16-16-16-16-16-16-|
|-15-15-15--15-15-15-15-15-|-15--15-15-15-15-15-15-15-|
|-13-13-13--13-13-13-13-13-|-13--13-13-13-13-13-13-13-|
|-11-11-11--11-11-11-11-11-|-11--11-11-11-11-11-11-11-|
|--------------------------|--------------------------|


  F5
   Q     Q.        E  E  E   W
|--------------------------|------*|
|--------------------------|------*|
|--------------------------|------*|
|--3-----3---------3--3--3-|------*|
|--3-----3---------3--3--3-|------*|
|--3-----3---------3--3--3-|------*|
|
|  E  E  E   E  E  E  E  E   W
|--------------------------|------*|
|-16-16-16--16-16-16-16-16-|------*|
|-15-15-15--15-15-15-15-15-|------*|
|-13-13-13--13-13-13-13-13-|------*|
|-11-11-11--11-11-11-11-11-|------*|
|--------------------------|------*|
--------------------------------------------------------------------------------

Tablature Legend
----------------
 h   - hammer-on
 p   - pull-off
 b   - bend
 pb  - pre-bend
 r   - bend release (if no number after the r, then release immediately)
 /\  - slide into or out of (from/to "nowhere")
 s   - legato slide
 S   - shift slide
 - natural harmonic
[n]  - artificial harmonic
n(n) - tapped harmonic
 ~   - vibrato
 tr  - trill
 T   - tap
 TP  - trem. picking
 PM  - palm muting
\n/  - tremolo bar dip; n = amount to dip
 \n  - tremolo bar down
 n/  - tremolo bar up
/n\  - tremolo bar inverted dip
 =   - hold bend; also acts as connecting device for hammers/pulls
 <> - volume swell (louder/softer)
 x   - on rhythm slash represents muted slash
 o   - on rhythm slash represents single note slash

            
            
Suggest correction
Creating personal tab
Creating personal tab
You can edit any tab online and save it as your Personal.

You can edit, replace or remove any tab part or add personal notes – all changes will be seen only by you.

Personal tabs can be accessed anytime from any device, even offline.
Learn more »
comments
print report bad tab
12 comments total. Showing first comments.
0 reply
universal_man 10 Feb 12, 2007 04:06 AM

i think this song in drop C tuning...but nice work

0 reply
nml6493 306 Apr 01, 2007 01:19 PM

you have the tab right but the tuning isnt in drop-d its in drop C try payign it drop D it sounds pretty crappy good tab besides the tuning

-1 reply
joerocker530 10 Apr 01, 2007 03:22 PM

universal_man u are wrong because if he dropped C it would be on a special kind of guitar? Like a IBANEZ RG370DX BUT he has a GIBSON Les paul.

guest
You may want to rate the tab now too:
select rating
Wanna post a correction for this tab? Suggest correction