Oops, an error
Loading. Please wait.

World Around You tab

version 1
version 1

Whole song

14,079 views 12 this week
7 commentsread comments
1 2 3 4 5
x 11
add to favorites
×
Save as Personal and add changes to this tab that will be seen only by you. Learn more ›
×
You can save this tab as Personal to edit and correct it or add notes. All changes will be seen only by you. Learn more »
launch autoscroll
font size
0
reset
how to read this tab
guitar tuner
edit
Autoscroll
slow
fast
+/-
esc
set tempo
stop
Papa Roach - The Paramour Sessions - 04.The World Around You
Drop-D tuning

Intro/verse

E---------10------8----------10------8---------E
B----------------------------------------------B
G----8-------8----------8-------8------8----12-G   
D-10---10------10----10---10------10-----10----D
A----------------------------------------------A
D----------------------------------------------D


Main Riff/Chorus

E--------------------------------------------------------------------E
B--------------------------------------------------------------------B
G--------------------------------------------------------------------G
D-10--10--10-10-10--10-10-10-10--10-10--6-----3-----8-----5-----5--5-D
A-10--10--10-10-10--10-10-10-10--10-10--6-----3-----8-----5-----5--5-A
D-10--10--10-10-10--10-10-10-10--10-10--6--6--3--3--8--8--5--5--5--5-D
                                           X     X     X     X


2nd guitar solo during main riff

E---------------------------------------------------------------------E
B---------------------------------------------------------------------B
G---------8-10-<11>-<11>-8--------------------------------------------G
D-10-8-10------------------10--10-8-10-8----8----------------------10-D
A----------------------------------------10---10-8-6-8-8-6-10-8----10-A
D---------------------------------------------------------------13-10-D
You must listen to rythm of solo, it sounds quite difficult, but it's 
not so hard... 

Bridge

E------I-----------E
B------I-----------B
G------I-----------G
D-6--8-I--10--6--3-D
A-6--8-I--10--6--3-A
D-6--8-I--10--6--3-D
  Once     Repeat


Just simple and catchy song! Enjoy :)


            
            
Suggest correction
Creating personal tab
Creating personal tab
You can edit any tab online and save it as your Personal.

You can edit, replace or remove any tab part or add personal notes – all changes will be seen only by you.

Personal tabs can be accessed anytime from any device, even offline.
Learn more »
comments
print report bad tab
7 comments total. Showing first comments.
0 reply
Rock*Star 10 Sep 28, 2006 06:11 PM

This is an esquisite tab, and so have the others from people on this album. (which I love BTW)

0 reply
Andrew Zara 41,529 Sep 29, 2006 10:57 AM

i believe the tuning is drop c on this one man. and the fill solo thing he does is a little off, nice try though.

0 reply
cibul_MT 41 Sep 29, 2006 12:19 PM

I know,this is just hillbilly tab,i was workin' on it just 10 minutes...but for another hillbilly,it's ok :)

guest
You may want to rate the tab now too:
select rating
Wanna post a correction for this tab? Suggest correction