Oops, an error
Loading. Please wait.

Nocaut bass

version 2
version 2

Whole song

13 views 1 this week
no commentswrite comment
1 2 3 4 5
3 more votes to show rating
add to favorites
×
Save as Personal and add changes to this tab that will be seen only by you. Learn more ›
×
You can save this tab as Personal to edit and correct it or add notes. All changes will be seen only by you. Learn more »
launch autoscroll
font size
0
reset
guitar tuner
edit
Autoscroll
slow
fast
+/-
esc
set tempo
stop
Author
Difficulty
Title: Nocaut
Artist: PapaNegro
Author: Shangora

[Intro]
G|--------------------------------|--------2--------------2--------2------|--------------------------------|
D|--------------------------------|---------------------------------------|--------------------------------|
A|-----1---3--5--3---1----0-------|-0---0-----1----0---------0--0-----0---|-----1---3--5--3---1----0-------|
E|-3------------------------------|---------------------------------------|-3------------------------------|

G|--------2----------------5--------5------|-----------------------------------|-----------------------------|
D|-----------------------------------------|-----------------------------------|-----------------------------|
A|-0---0-----1----3-----------3--3-----3---|-----1---3--5--3---1----0------1---|--0--------------------------|
E|-----------------------------------------|-3---------------------------------|----1--1--1--3------3--3-----|

[Verse]
G|-------5--5--------2--2--------3--3--------4--4--|-------5--5--------2--2------------------|
D|-------------------------------------------------|-----------------------------------------|
A|-3--3--------0--0--------1--1--------2--2--------|-3--3--------0--0------------------------|
E|-------------------------------------------------|-------------------------4------------5--|

G|----------------------------------------------5--|-5--5------------------------------------------|
D|-7--7--------------------------7-----------------|-------7-----------------------10--------------|
A|-------7-----------------------------------------|-------------7---------------------------------|
E|-------------8-----8--5--5--5-----------5--5-----|-------------------8--8--8--8-----------8---0--|

G|-------------------------------------------------|-------7-----------------------------------------|
D|-------------------------------3-----------------|-------------------------------6-----------------|
A|----------------------------------------------5--|-5--5-----------5--5-----------------------------|
E|-1--1--1-----1-----0--1--1--1-----------1--1-----|----------------------0--4--4-----------4--4--5--|

G|----------------------------------------------5--|-5--5------------------------------------------|
D|-7--7--------------------------7-----------------|-------7-----------------------10--------------|
A|-------7-----------------------------------------|-------------7---------------------------------|
E|-------------8-----8--5--5--5-----------5--5-----|-------------------8--8--8--8-----------8---0--|

G|-------------------------------------------------|-------7-----------------------------------------|
D|-------------------------------3-----------------|-------------------------------6-----------------|
A|----------------------------------------------5--|-5--5-----------5--5-----------------------------|
E|-1--1--1-----1-----0--1--1--1-----------1--1-----|----------------------0--4--4-----------4--4--4--|

[Chorus]
G|--------------------------------|--------2--------------2--------2------|--------------------------------|
D|--------------------------------|---------------------------------------|--------------------------------|
A|-----1---3--5--3---1----0-------|-0---0-----1----0---------0--0-----0---|-----1---3--5--3---1----0-------|
E|-3------------------------------|---------------------------------------|-3------------------------------|

G|--------2----------------5--------5------|-----------------------------------|-----------------------------|
D|-----------------------------------------|-----------------------------------|-----------------------------|
A|-0---0-----1----3-----------3--3-----3---|-----1---3--5--3---1----0------1---|--0--------------------------|
E|-----------------------------------------|-3---------------------------------|----1--1--1--3------3--3-----|

G|-------5--5--------2--2--------3--3--------4--4--|-------5--5--------2--2--------3--3--------4--4--|
D|-------------------------------------------------|-------------------------------------------------|
A|-3--3--------0--0--------1--1--------2--2--------|-3--3--------0--0--------1--1--------2--2--------|
E|-------------------------------------------------|-------------------------------------------------|

G|--------------------------------|--------2--------------2--------2------|--------------------------------|
D|--------------------------------|---------------------------------------|--------------------------------|
A|-----1---3--5--3---1----0-------|-0---0-----1----0---------0--0-----0---|-----1---3--5--3---1----0-------|
E|-3------------------------------|---------------------------------------|-3------------------------------|

G|--------2----------------5--------5------|-----------------------------------|-----------------------------|
D|-----------------------------------------|-----------------------------------|-----------------------------|
A|-0---0-----1----3-----------3--3-----3---|-----1---3--5--3---1----0------1---|--0--------------------------|
E|-----------------------------------------|-3---------------------------------|----1--1--1--3------3--3-----|

[Verse]
G|-------5--5--------2--2--------3--3--------4--4--|-------5--5--------2--2------------------|
D|-------------------------------------------------|-----------------------------------------|
A|-3--3--------0--0--------1--1--------2--2--------|-3--3--------0--0------------------------|
E|-------------------------------------------------|-------------------------4------------5--|

G|----------------------------------------------5--|-5--5------------------------------------------|
D|-7--7--------------------------7-----------------|-------7-----------------------10--------------|
A|-------7-----------------------------------------|-------------7---------------------------------|
E|-------------8-----8--5--5--5-----------5--5-----|-------------------8--8--8--8-----------8---0--|

G|-------------------------------------------------|-------7-----------------------------------------|
D|-------------------------------3-----------------|-------------------------------6-----------------|
A|----------------------------------------------5--|-5--5-----------5--5-----------------------------|
E|-1--1--1-----1-----0--1--1--1-----------1--1-----|----------------------0--4--4-----------4--4--5--|

G|----------------------------------------------5--|-5--5------------------------------------------|
D|-7--7--------------------------7-----------------|-------7-----------------------10--------------|
A|-------7-----------------------------------------|-------------7---------------------------------|
E|-------------8-----8--5--5--5-----------5--5-----|-------------------8--8--8--8-----------8---0--|

G|-------------------------------------------------|-------7-----------------------------------------|
D|-------------------------------3-----------------|-------------------------------6-----------------|
A|----------------------------------------------5--|-5--5-----------5--5-----------------------------|
E|-1--1--1-----1-----0--1--1--1-----------1--1-----|----------------------0--4--4-----------4--4--4--|

[Chorus]
G|--------------------------------|--------2--------------2--------2------|--------------------------------|
D|--------------------------------|---------------------------------------|--------------------------------|
A|-----1---3--5--3---1----0-------|-0---0-----1----0---------0--0-----0---|-----1---3--5--3---1----0-------|
E|-3------------------------------|---------------------------------------|-3------------------------------|

G|--------2----------------5--------5------|-----------------------------------|-----------------------------|
D|-----------------------------------------|-----------------------------------|-----------------------------|
A|-0---0-----1----3-----------3--3-----3---|-----1---3--5--3---1----0------1---|--0--------------------------|
E|-----------------------------------------|-3---------------------------------|----1--1--1--3------3--3-----|

G|-------5--5--------2--2--------3--3--------4--4--|-------5--5--------2--2--------3--3--------4--4--|
D|-------------------------------------------------|-------------------------------------------------|
A|-3--3--------0--0--------1--1--------2--2--------|-3--3--------0--0--------1--1--------2--2--------|
E|-------------------------------------------------|-------------------------------------------------|

G|--------------------------------|--------2--------------2--------2------|--------------------------------|
D|--------------------------------|---------------------------------------|--------------------------------|
A|-----1---3--5--3---1----0-------|-0---0-----1----0---------0--0-----0---|-----1---3--5--3---1----0-------|
E|-3------------------------------|---------------------------------------|-3------------------------------|

G|--------2----------------5--------5------|-----------------------------------|----------------------------|
D|-----------------------------------------|-----------------------------------|----------------------------|
A|-0---0-----1----3-----------3--3-----3---|-----1---3--5--3---1----0------1---|-0--0------1----13----5--5--|
E|-----------------------------------------|-3---------------------------------|----------------------------|

[Verse 2]
G|-------------------------------------------------|--------------------------------------|
D|-------------------------------------------------|--------------------------------------|
A|-5--5--3-----5-----3-----5--5--5--5--5--3--1-----|--------------------------------------|
E|----------------------------------------------1--|-1--1--0-----1-----0-----1----2----3--|

G|-------------------------------------------------|-------------------------------------------------|
D|-------------------------3--3--3--2--3--2--------|-------------------------3--3--3--2--3--2--------|
A|-------------------------------------------3-----|-------------------------------------------3--5--|
E|-3--3--1-----3-----1--------------------------3--|-3--3--1-----3-----1-----------------------------|

G|-------------------------------------------------|--------------------------------------|
D|-------------------------------------------------|--------------------------------------|
A|-5--5--3-----5-----3-----5--5--5--5--5--3--1-----|--------------------------------------|
E|----------------------------------------------1--|-1--1--0-----1-----0-----1----2----3--|

G|-------------------------------------------------|-------------------------------------------------|
D|-------------------------3--3--3--2--3--2--------|-------------------------3--3--3--2--3--2--------|
A|-------------------------------------------3-----|-------------------------------------------3--5--|
E|-3--3--1-----3-----1--------------------------3--|-3--3--1-----3-----1-----------------------------|

G|-------------------------------------------------|--------------------------------------|
D|-------------------------------------------------|--------------------------------------|
A|-5--5--3-----5-----3-----5--5--5--5--5--3--1-----|--------------------------------------|
E|----------------------------------------------1--|-1--1--0-----1-----0-----1----2----3--|

G|-------------------------------------------------|-------------------------------------------------|
D|-------------------------3--3--3--2--3--2--------|-------------------------3--3--3--2--3--2--------|
A|-------------------------------------------3-----|-------------------------------------------3--5--|
E|-3--3--1-----3-----1--------------------------3--|-3--3--1-----3-----1-----------------------------|

G|-------------------------------------------------|--------------------------------------|
D|-------------------------------------------------|--------------------------------------|
A|-5--5--3-----5-----3-----5--5--5--5--5--3--1-----|--------------------------------------|
E|----------------------------------------------1--|-1--1--0-----1-----0-----1----2----3--|

G|-------------------------------------------------|-------------------------------------------------|
D|-------------------------3--3--3--2--3--2--------|-------------------------3--3--3--2--3--2--------|
A|-------------------------------------------3-----|-------------------------------------------3--3--|
E|-3--3--1-----3-----1--------------------------3--|-3--3--1-----3-----1-----------------------------|

[Outro]
G|--------------------------------|--------2--------------2--------2------|--------------------------------|
D|--------------------------------|---------------------------------------|--------------------------------|
A|-----1---3--5--3---1----0-------|-0---0-----1----0---------0--0-----0---|-----1---3--5--3---1----0-------|
E|-3------------------------------|---------------------------------------|-3------------------------------|

G|--------2----------------5--------5------|-----------------------------------|-------------------------11-|
D|-----------------------------------------|-----------------------------------|-------------------------9--|
A|-0---0-----1----3-----------3--3-----3---|-----1---3--5--3---1----0------1---|---0------1----13---1----10-|
E|-----------------------------------------|-3---------------------------------|-------------------------10-|

            
            
Suggest correction
Creating personal tab
Creating personal tab
You can edit any tab online and save it as your Personal.

You can edit, replace or remove any tab part or add personal notes – all changes will be seen only by you.

Personal tabs can be accessed anytime from any device, even offline.
Learn more »
Give kudos to tab author, rate the tab!
1 2 3 4 5
comments
print report bad tab
guest
You may want to rate the tab now too:
select rating
Wanna post a correction for this tab? Suggest correction