Oops, an error
Loading. Please wait.

A Donde Esta La Libertad bass

by Pappo
242 views 1 this week
no commentswrite comment
1 2 3 4 5
3 more votes to show rating
add to favorites
×
Save as Personal and add changes to this tab that will be seen only by you. Learn more ›
×
You can save this tab as Personal to edit and correct it or add notes. All changes will be seen only by you. Learn more »
launch autoscroll
font size
0
reset
guitar tuner
edit
Autoscroll
slow
fast
+/-
esc
set tempo
stop
Esta transcripción es de la version de ?Pappo y amigos?, en la original de
?Volumen 1? el bajo no se escuchaba tan nitido como para sacarlo bien, aunque
es mejor y suena mas poderosa y termina con una zapada blusera buenisima.
Los guiones en algunas partes marcan el comienzo de cada compas.

0:04

G|---------------------------------------------
D|---------------------------------------------
A|---------------------------------------------
E|-0-3--5--------0-3--5--------0-3--5--5-------

         ?A donde esta la libertad?                    ?no creo que?
G|-----------------------------------------------------------
D|-----------------------------------------------------------
A|-----------------------------------------------------------
E|-0-3--5--------0-3--5--------0-3--5--------0-3--5--5-------

?nunca?            ?si que nunca, la hemos pasado tan?
G|---------------------------------------------------
D|---------------------------------------------------
A|-5-3-5-3-5-3--0-5-3--5----5-3-5-3-5-3--0-5-3--5----
E|---------------------------------------------------

   -            -             -            -
 ?mal?
G|------------------------------------------------------------
D|------------------------5-7--------------10h12-10-5---------
A|------------------0--5/7----0---0--0-0-0------------7-6-5---
E|-5---5--5-3-0-5------------------------------------------8-5

   -            -             -            -
 ?No es posible?             ?es imposible?    ?aguantar?   (2 vueltas)
G|-------------------------------------------------------|--------------|
D|-------------------------------------------------------|--------------|
A|-3--3--3-3-3--5--5--5-5-5-5-3--3-3-------5--5--5-5-5-5-|-0--2---3--2--|
E|----------------------------------0-1-3----------------|--------------|

          ?El otro dia me quisieron matar?             ?no creo que?
G|-----------------------------------------------------------
D|-----------------------------------------------------------
A|-----------------------------------------------------------
E|-0-3--5--------0-3--5--------0-3--5--------0-3--5--5-------

?nunca?            ?si que nunca, la hemos pasado tan?
G|---------------------------------------------------
D|---------------------------------------------------
A|-5-3-5-3-5-3--0-5-3--5----5-3-5-3-5-3--0-5-3--5----
E|---------------------------------------------------

   -            -            -            -
 ?mal?
G|----------------------------------------5-------------
D|-----------------------7-7------------5---7-5---------
A|---------------------------0---0--0-0---------7-6-5---
E|-5---5--0-3-0-5---5--5-----------------------------8-5

   -             -              -            -
  ?No es posible?              ?es imposible?  ?aguantar?
G|-------------------------------------------------------
D|-------------------------------------------------------
A|-3--3--3-3-3-3-5--5-5-5-5-5-0-3----------3/5--5--5-5-5-
E|--------------------------------0--3-3-5---------------


G|---------------------------------------------
D|---------------7---7-9--9-7-9-10--10-9--9-7-5
A|-0--2---3--2-----7---------------------------
E|---------------------------------------------

(Durante el solo de viola solo toca esto hasta el proximo cambio)
G|--------------------
D|-7--7-7|7-7|7-7-7-?-
A|--------------------
E|--------------------

2:14
   -              -             -            -             -
G|----------------------------------------------------------------------
D|---------------------------------5h7--5-------------------------------
A|-3--3-3-3-3-3-0-5--5-5-5-5-5--3----------7-5--5-5-5-5-5--3--3-3-3-3-3-
E|----------------------------------------------------------------------

   -             -           -
G|----------------------------------------
D|----------------------------------------
A|-5--5-5-5-5-5--3-----------5--5-5-5-5-5-
E|------------------0--1--3---------------

   -             -
G|---------------------------------------
D|---------------7-5-7-9--9-7-9-10--10-9-
A|-0--2---3--2---------------------------
E|---------------------------------------

         ?A donde esta la libertad?                    ?no creo que?
G|-----------------------------------------------------------
D|---------------------------------------------------7-------
A|-----------------------------------------------------------
E|-0-3--5--------0-3--5--------0-3--5--------0-3--5----------

?nunca?       ?si que nunca?     ?la hemos pasado tan?
G|---------------------------------------------------
D|---------------------------------------------------
A|-5-3-5-3-5-3--0-5-3--5----5-3-5-3-5-3--0-5-3--5----
E|---------------------------------------------------

   -            -           -           -
 ?mal?
G|---------------------------------------------------------
D|-----------------------7--------------9h10-7-5-----------
A|-----------------------------------------------7-6-5-----
E|-5---5--0-3-0-5---5--5----5---5--0-3-----------------8-10

   -            -             -               -
 ?No es posible?             ?es imposible?      ?aguantar?    (2 vueltas)
G|----------------------------------------------------------|--------------|
D|----------------------------------------------------------|--------------|
A|-3--3--3-3-3--5--5--5-5-5-5-7--7--7-7-7-7-7/9--9--9-9-9-9-|-0--2---3--2--|
E|----------------------------------------------------------|--------------|


G|--------------------------------------------------------
D|-7-5-7-9--9-7-9-10--10-9--9-9---------------------------
A|-------------------------------0--2---3--2--------------
E|--------------------------------------------0-3--5------


  / : slide up (?arrastrar? hacia adelante)
  h : hammer on (ligado)
x|x : tocar las dos notas consecutivamente rápido por Ej. 7|7

Adónde está la libertad (Pappo)

Adónde está la libertad,
no dejo nunca de pensar,
quizás la tengan en algún lugar,
que tendremos que alcanzar.

No creo que nunca,
si que nunca,
no creo que nunca,
la hemos pasado tan mal;
no es posible,
es imposible,
aguantar.

El otro día me quisieron matar,
Ametralladora pa-pa-pa-pa!,
yo sólo quiero escapar,
de toda su locura intelectual.

No creo que nunca,
si que nunca,
no creo que nunca,
la hemos pasado tan mal;
no es posible,
es imposible,
aguantar.


Mientras su musica se siga tocando y escuchando el carpo jamas morira,
vivira eternamente en la memoria de todos.

            
            
Suggest correction
Creating personal tab
Creating personal tab
You can edit any tab online and save it as your Personal.

You can edit, replace or remove any tab part or add personal notes – all changes will be seen only by you.

Personal tabs can be accessed anytime from any device, even offline.
Learn more »
Give kudos to tab author, rate the tab!
1 2 3 4 5
comments
print report bad tab
guest
Wanna post a correction for this tab? Suggest correction