Oops, an error
Loading. Please wait.

Blues De Santa Fe bass

by Pappo
109 views 1 this week
no commentswrite comment
1 2 3 4 5
3 more votes to show rating
add to favorites
×
Save as Personal and add changes to this tab that will be seen only by you. Learn more ›
×
You can save this tab as Personal to edit and correct it or add notes. All changes will be seen only by you. Learn more »
launch autoscroll
font size
0
reset
guitar tuner
edit
Autoscroll
slow
fast
+/-
esc
set tempo
stop
Esta transcripción es de su disco Volumen 2, la version original.
Los guiones marcan el comienzo de cada compas.
Básicamente las vueltas son en escala de blues con estas notas:
A D A A D D A A E D A A (la primera es cuando empieza a cantar) y vuelve otra
vez desde el principio.

Intro
   -        -        -        -        -        -         -
G|-------------6------------------------------------------------------------
D|-----6--6-9------9--------------------------------------------------------
A|-7-----------------5---3--3-2---1--1-0---4--4-5--5-6--6-7--7-7-7-7-10--10-
E|--------------------------------------------------------------------------

   -

G|----------------
D|-------10-10-7--
A|-7---7---------7
E|----------------

   -       -        -       -          -         -
?Oh ye!?       ?este es el blus de Santa Fe?
G|------------------------------4-------------------------
D|----------------------4---7-----7-------------------4--7
A|-0---4---7---9--7-5----------------4|0--0-4--4-7--7-----
E|--------------------------------------------------------

   -        -         -       -         -         -        -
                 ?oh ye?               ?este es el blus de Santa Fe?
G|---------------------------------4---------------------------------
D|------------------------4---7--7----7------------------------------
A|-0---2--2-3--3-4--4-5-----------------5--5-3--3-2--2-0---------4--4
E|--------------------------------------------------------3-5--5-----

   -         -         -         -         -         -        -
                              ?tu tienes blus, con este blus de Santa Fe?
G|----------------------------------------------------------------4--
D|------4--7----------------5--5-------------------------4--4-7------
A|-7--7------0--0-4--4-7--7------7--7-5--5-3--3-2--2-5---------------
E|-------------------------------------------------------------------

   -        -         -         -
G|--------------------------------------
D|-7---5--5-4--4-3--3-2---2-2-2-2-------
A|----------------------------------3---
E|--------------------------------------

(aca empieza el solo de viola)
   -         -         -
G|-------------------------------
D|-------------------------------
A|-0--0-4--4-7--7-9--7-5---5-3--3
E|-------------------------------

   -        -         -         -          -         -       -
G|----------------------------------------------------------------4-7--
D|----------------------------7-10--10-7---7-5-----------4---7--7------
A|-2---1--1-0--0-4--4-7--7-9--------------------7-3--5-----------------
E|---------------------------------------------------------------------

   -         -        -         -         -         -         -
G|-----------------------------------------------------------------------
D|--------------------------------------7--------------------------------
A|-5--5-3--3-2--2-1---0--0-4--4-7--7-9----0--0-3--3-0--0----------7-10-10
E|-------------------------------------------------------3--3-0----------

2:06
   -         -         -         -         -         -          -
G|-------------------------------------------------------------------------
D|----------------4--4-7--7-9--9----------------------------5-5------10-9--
A|-7~--0-3-4-5--5----------------0--0-4--4-5--5-6--6-7--7-7-----7~7-------7
E|-------------------------------------------------------------------------


   -         -          -         -          -         -        -
G|------------------------------------------------------------------7------
D|----------------4-4-7---------------------------------------7-10---10-7-7
A|-0--0-4--4-7--7-------5--5-3--3-2--2-0----------4--4-7--7-9--------------
E|---------------------------------------3-4-5--5--------------------------

2:42
   -          -         -          -         -          -         -
G|-------------------------------------------------------------------------
D|-10-7---------------------------------4--4-7--7-9--10-7--7-5--5-3--3-2---
A|-------3--4-5--5-3--3-2--2-0-3-4-5--5------------------------------------
E|------------------------------------------------------------------------3

   -            -           -         -            -        -
G|---------------------------------------------------------------------
D|--------7----------------------6--6-9--9-11-9------------------------
A|---------7----------3-4-5-7--7-----------------3-5---3--3-2--2\-----3
E|-5---5----5-5-5-5-5---------------------------------------------3-5--

   -         -         -            -
                                           ?acom-
G|-----------------------------------------------
D|--------------------------10-10--7-------------
A|------4--4-5--5-6--6-7--7---------7--7|7--5--3-
E|-5--5------------------------------------------

   -       -         -
?pañame, te mostrare?
G|----------------------------
D|----------------------------
A|-0---4---7--7-9--7-5--5-3--3
E|----------------------------

   -         -         -         -           -          -         -
      ?unos campos?    ?en Santa Fe?              ?oh ye!?
G|--------------------------------------------------------------------------
D|-----------------------------7-7--7-10--10-7----7-------------------------
A|-2--2-1--1-0--0-4--4-7--7-9-----------------0-----7-3-5--5-3--3-2--2-0-3-4
E|--------------------------------------------------------------------------

   -          -        -         -              -             -
?este es el blus de Santa Fe?
G|--------------------------------------------------------------------------
D|------------------------------------10-7--7----------7-7--7-7--7-7--7--5-5
A|-5---5-3--3-2--2-1---0--0-4--4-7--7------7--7|0--0-0-----7----7----7------
E|--------------------------------------------------------------------------

   -        -        -
?tu tienes blus?    ?con este blus de Santa Fe?
G|--------------------------------------------
D|--------------------------------------------
A|-7--7-5---3--2-3-4-5------------------------
E|----------------------------------------3--4

Final
   -         -         -
G|-----------------------------------------------------------------
D|------------------------------10-----7---------------------------
A|------4--4-5--5-6--6-7--7--7--10-----7---------------------------
E|-5--5-------------------------8--8---5-5-5-5-5-5-5-?-5-----------

  \ : slide down (?arrastrar hacia atrás)
x|x : tocar las dos notas consecutivamente rápido por Ej. 7|0
  ~ : vibrato


Blues de Santa Fe (Pappo)

Oh yeah!, este es el blues de Santa Fe;
oh yeah!, este es el blues de Santa Fe;
tu tienes blues, con este blues de Santa Fe.

Acompáñame, te mostraré, unos campos, en Santa Fe,
oh yeah!, este es el blues de Santa Fe;
tu tienes blues, con este blues de Santa Fe.


Mientras su musica se siga tocando y escuchando el carpo jamas morira,
vivira eternamente en la memoria de todos.

            
            
Suggest correction
Creating personal tab
Creating personal tab
You can edit any tab online and save it as your Personal.

You can edit, replace or remove any tab part or add personal notes – all changes will be seen only by you.

Personal tabs can be accessed anytime from any device, even offline.
Learn more »
Give kudos to tab author, rate the tab!
1 2 3 4 5
comments
print report bad tab
guest
Wanna post a correction for this tab? Suggest correction