Oops, an error
Loading. Please wait.

Cabeza De Martillo tab

by Pappo
73 views 1 this week
no commentswrite comment
1 2 3 4 5
3 more votes to show rating
add to favorites
×
Save as Personal and add changes to this tab that will be seen only by you. Learn more ›
×
You can save this tab as Personal to edit and correct it or add notes. All changes will be seen only by you. Learn more »
launch autoscroll
font size
0
reset
how to read this tab
guitar tuner
edit
Autoscroll
slow
fast
+/-
esc
set tempo
stop
Introducción: (G5), (B5), (E5)

|-------------------------------------------|
|-------------------------------------------|
|-------------------------------------------|   (2 VECES)
|-------------------------------------------|
|-------------------------------------------|
|-0-1-3-5-7-7-6-5-3-0-0-1-3-5-7-7-6-5-3-1-0-|


E5, F5, G5, A5, B5,A#5, A5, G5, F5, E5.    (4 veces)


Riff 1:
|---------------|
|---------------|
|---------------|
|---------------|
|-4-3-4-6-4-3-0-|


Riff 2:
|---------------------|
|---------------------|
|---------------------|
|---------------------|
|---------------------|
|-7-9-10-9-7-6-10-7-6-|


Riff 3:
|--------------------------|
|--------------------------|
|--------------------------|
|--------------------------|
|--------------8-----7-5-2-|
|-7-9-10-9-7-6---7-6-5-3-0-|


E5           (Riff1)
Debo destruir
                       E5 (Riff1)
Lo que esta en mi mente
Lejos de la
Gran confusión


     E5        C5 B5
El futuro esta
      E5      (Riff2)
Disipándome
  E5       C5 B5
Y yo estoy
     E5        (Riff3)
Encerrado aquí

E5 F5 G5 A5 B5
A#5  A5    G5   F5 E5
Como un enfermo mental
Enfermo mental
Enfermo mental    HAH!!!!!


Muchos de ellos están
Volviéndose Insanos
Sin tener Lugar
Ni nada a su vez


Y mi ser
Se va convirtiendo
En una gran
Masa de?


De intoxicación
Intoxicación
Intoxicación


SOLO DE GUITARRA

(Repite las dos
Ultimas estrofas)

Reclaman venganza
Desde sus tumbas
No por eso
Van a estar mejor


Y el mar
Castiga a su presa
Y después de?
Después de su muerte


Muerte!!!!!
Muerte!!!!!!!!!!

Lo repite hasta
     El final


Gracias por darme este espacio espero que les sirva.

            
            
Suggest correction
Creating personal tab
Creating personal tab
You can edit any tab online and save it as your Personal.

You can edit, replace or remove any tab part or add personal notes – all changes will be seen only by you.

Personal tabs can be accessed anytime from any device, even offline.
Learn more »
Give kudos to tab author, rate the tab!
1 2 3 4 5
comments
print report bad tab
guest
Wanna post a correction for this tab? Suggest correction