Oops, an error
Loading. Please wait.

Caras En El Parque bass

by Pappo
137 views 1 this week
no commentswrite comment
1 2 3 4 5
3 more votes to show rating
add to favorites
×
Save as Personal and add changes to this tab that will be seen only by you. Learn more ›
×
You can save this tab as Personal to edit and correct it or add notes. All changes will be seen only by you. Learn more »
launch autoscroll
font size
0
reset
guitar tuner
edit
Autoscroll
slow
fast
+/-
esc
set tempo
stop
VERSION revisada y CORREGIDA

Temaso del mejor disco de pappo en los 70. No fue muy tocado por
el carpo en vivo (es mas no conozco ninguna version en vivo).
No es muy complicado para tocar. Escuchen el bien el tema para
guiarse y aprecien su excelente solo de guitarra aca les va:

     4 veces    ?no hace mucho??
G|-------------|-----------------------------------------------------
D|-------------|------------------------6-68-8-88-88-88-88-88-88-88-8
A|-6-4---------|-6-6-66-66-66-66-66-66-9-----------------------------
E|-----6-5-4-2-|-----------------------------------------------------

           ?los cielos??    ?caras en el parque?
G|--------------------------|-------------|
D|6-6-66-66-66-66-66-66-66--|-------------|
A|--------------------------|-6-4---------|
E|--------------------------|-----6-5-4-2-|

?ahora que muy??
G|-----------------------------------------------------
D|------------------------6-68-8-88-88-88-88-88-88-88-8
A|-6-6-66-66-66-66-66-66-9-----------------------------
E|-----------------------------------------------------

? y elevo mis palabras??    ?hacia las??   ?empiezo a recordar??
                                2 veces            2 veces
G|--------------------------|-------------|--------------------------|
D|6-6-66-66-66-66-66-66-66--|-------------|--------------------------|
A|--------------------------|-6-4---------|--------------------------|
E|--------------------------|-----6-5-4-2-|-4-44-44-44-44-44-44-42-3-|

                         ?alguien a quien amar?
G|---------------------------------------------
D|---------------------------------------------
A|---------------------------------------------
E|4-44-44-44-44-44-44-5-6-6-66-66-66-66-66-66-6

?ahora que muy??
G|----------------------------------------------------
D|-----------------------6-68-8-88-88-88-88-88-88-88-8
A|6-6-66-66-66-66-66-66-9-----------------------------
E|----------------------------------------------------

? y elevo mis palabras??    ?hacia las estrellas??
                                2 veces
G|--------------------------|-------------|
D|6-6-66-66-66-66-66-66-66--|-------------|
A|--------------------------|-6-4---------|
E|--------------------------|-----6-5-4-2-|

G|----------------------------------------------------------------------
D|--------------------6666666-----------6666666-----------6666666-------
A|-8-8-8-8-8-8-8-8-8-8-------8-8-8-8-8-8-------8-8-8-8-8-8-------8-8-8-8
E|----------------------------------------------------------------------

       (durante 6 vueltas del solo)
G|---------------------------------------------------------------------
D|-8-8-88-8-8-8-8-8-6-6-66-6-6-6-6-6------------------8-8-88-8-8-8-8-8-
A|-----------------------------------9-9-99-9-9-9-9-9------------------
E|---------------------------------------------------------------------

Y en la ultima vuelta del solo hace esto:
G|---------------------------------------------------------------------
D|-8-8-88-8-8-8-8-8-6-6-66-6-6-6-6-6-----------------------------------
A|-----------------------------------9-9-99-9-9-9-9-9-8-8-88-8-8-8-8-8-
E|---------------------------------------------------------------------

     4 veces    ?no hace mucho??
G|-------------|-----------------------------------------------------
D|-------------|------------------------6-68-8-88-88-88-88-88-88-88-8
A|-6-4---------|-6-6-66-66-66-66-66-66-9-----------------------------
E|-----6-5-4-2-|-----------------------------------------------------

           ?los cielos??    ?caras en el parque?
G|--------------------------|---------------|
D|6-6-66-66-66-66-66-66-66--|-----6-8-7-6---|
A|--------------------------|-6-9---------9-|
E|--------------------------|---------------|

Caras en el parque (Pappo)

No hace mucho tiempo hoy, no quiero encontrar
los cielos maravilla, caras en el parque
Ahora que muy solo estoy, empiezo a sonreir
y elevo mis palabras, hacia las estrellas
Empiezo a recordar, que justamente hoy
Hoy quiero encontrar, alguien a quien amar
Ahora que muy solo estoy, empiezo a sonreir
y elevo mis palabras, hacia las estrellas

No hace mucho tiempo hoy, no quiero encontrar
los cielos maravilla, caras en el parque

Mientras su musica se siga tocando y escuchando el carpo jamas morira,
vivira eternamente en la memoria de todos...
e-mail: zarathustra4321@

            
            
Suggest correction
Creating personal tab
Creating personal tab
You can edit any tab online and save it as your Personal.

You can edit, replace or remove any tab part or add personal notes – all changes will be seen only by you.

Personal tabs can be accessed anytime from any device, even offline.
Learn more »
Give kudos to tab author, rate the tab!
1 2 3 4 5
comments
print report bad tab
guest
Wanna post a correction for this tab? Suggest correction