Oops, an error
Loading. Please wait.

Completamente Nervioso bass

by Pappo
89 views 1 this week
no commentswrite comment
1 2 3 4 5
3 more votes to show rating
add to favorites
×
Save as Personal and add changes to this tab that will be seen only by you. Learn more ›
×
You can save this tab as Personal to edit and correct it or add notes. All changes will be seen only by you. Learn more »
launch autoscroll
font size
0
reset
guitar tuner
edit
Autoscroll
slow
fast
+/-
esc
set tempo
stop
Esta transcripcion esta hecha del disco de album ?Aeroblus? (1976)
La afinación del bajo en este tema del disco es un poco mas grave de la
comun(440). Aguante el carpo!!!!

G|------------------------------------------------------------------------
D|------------------------------------------------------------------------
A|-5----7----------5----7----------5----7----------5----7-----------------
E|------------------------------------------------------------------------

G|-------------------------------------------------------------------
D|-------------------------------------------------------------------
A|-----------------7-7-7-7-7------------------------7-7-7-7-7--------
E|-5-5-5-5-5-5-5-3-----------10-9-8-7-7-7-7-5-5-5-3-----------10-9-8-
      ?Cuando tenga algun problema,   si algo le funciona mal,        si se
G|-------------------------------------------------------------------------
D|-------------------------------------------------------------------------
A|-----------------7-7-7-7-7-7-7-7-----------------7-7-7-7-7-5-4-----------
E|-7-7-7-7-5-5-5-3-----------------7-7-7-7-5-5-5-3---------------3/5-5-5-5-
de dio cuenta que es falta de velocidad?                      ?En verdad?
G|-------------------------------------------------------------------------
D|-------------------------------------------------------------------------
A|-------------------4-5-6-7--7----7--7----7--7----7--7--------------------
E|-5-5-5-5-5-5-5-5-5---------------------------------------7-7-7-7-7-7-7-7-
        ?que haber dado cuenta antes?
G|----------------------------------------------------
D|----------------------------------------------------
A|---------5---------7-7-7-7-7-7-7-5/7-7-7-7-7--------
E|-7-7-7-7------5------------------------------10-9-8-
      ?Si somos todos iguales,        unos vienen y otros van,      pero yo
G|-------------------------------------------------------------------------
D|-------------------------------------------------------------------------
A|-----------------7-7-7-7-7------------------------7-7-7-7-7--------------
E|-7-7-7-7-5-5-5-3-----------10-9-8-7-7-7-7-5-5-5-3-----------2-3-4-5-5-5-5
sin ser el mismo equivoque?                                   ?y ahora?
G|-------------------------------------------------------------------------
D|-------------------------------------------------------------------------
A|-------------------4-5-6-7--7----7--7----7--7----7--7--------------------
E|-5-5-5-5-5-5-5-5-5---------------------------------------7-7-7-7-7-7-7-7-
      ?sin saber donde?
G|------------------
D|------------------
A|---------5--------
E|-7-7-7-7------5---
                  ?Hee!                        ?sop, sop ,sop, sop?
G|----------------------------------------------------------------
D|----------------------------------------------------------------
A|--7-7-7-7-7-7-7-5/7-7-7-7-7-7-7-5/7-7-7-7-7-7-7-5/7-7-7-7-7-7-7-
E|----------------------------------------------------------------

G|----------------------------------------------------------------
D|----------------------------------------------------------------
A|5/7-7-7-7-7-7-7-5/7-7-7-7-7-7-7-5/7-7-7-7-7-7-7-5/7-7-7-7-7-7-7-
E|----------------------------------------------------------------

G|----------------------------------------------------------------
D|----------------------------------------------------------------
A|5/7-7-7-7-7-7-7-5/7-7-7-7-7-7-7-5/7-7-7-7-7-7-7-5/7-7-7-7-7-7-7-
E|----------------------------------------------------------------

G|----------------------------------------------------------------
D|----------------------------------------------------------------
A|5/7-7-7-7-7-7-7-5/7-7-7-7-7-7-7-5/7-7-7-7-7-7-7-5/7-7-7-7-7-7-7-
E|----------------------------------------------------------------

G|----------------------------------------------------------------
D|----------------------------------------------------------------
A|5/7-7-7-7-7-7-7-5/7-7-7-7-7-7-7-5/7-7-7-7-7-7-7-5/7-7-7-7-7-7-7-
E|----------------------------------------------------------------

G|------------------------------------------------------------------
D|------------------------------------------------------------------
A|5/7-7-7-7-7-7-7-5/7-7-7-7-7-7-7-5/7-7-7-7-7-7-7-5/7-7-7-7-7-------
E|------------------------------------------------------------10-9-8

G|---------------------------------
D|---------------------------------
A|----------------7-7-7-7-7--------
E|7-7-7-7-5-5-5-3-----------10-9-8-
      ?Cuando tenga algun problema,   si algo le funciona mal,        si se
G|-------------------------------------------------------------------------
D|-------------------------------------------------------------------------
A|-----------------7-7-7-7-7------------------------7-7-7-7-7--------------
E|-7-7-7-7-5-5-5-3-----------10-9-8-7-7-7-7-5-5-5-3-----------2-3-4-5-5-5-5
de dio cuenta que es falta de velocidad?                      ?En verdad?
G|-------------------------------------------------------------------------
D|-------------------------------------------------------------------------
A|-------------------4-5-6-7--7----7--7----7--7----7--7--------------------
E|-5-5-5-5-5-5-5-5-5---------------------------------------7-7-7-7-7-7-7-7-
        ?que haber dado cuenta antes?
G|------------------------------------------------
D|------------------------------------------------
A|---------5---------7-7-7-7-7-7-7-7-7-7-7-7-7-7-7
E|-7-7-7-7------5---------------------------------
                                                                    Final
G|-----------------------------------------------------------------|------|
D|-----------------------------------------------------------------|------|
A|-5----7----------5----7----------5----7----------5----7----------|-5----|
E|-----------------------------------------------------------------|------|

/:slide up

Completamente nervioso (Pappo)

Cuando tenga algún problema,
si algo le funciona mal,
si se dio cuenta que es
falta de velocidad,
en verdad usted tendríase,
que haber dado cuenta antes.

Si somos todos iguales,
unos vienen y otros van,
pero yo sin ser el mismo
equivoqué;
y ahora estoy aquí observándome,
sin saber dónde meterme.

Mientras su musica se siga tocando y escuchando el carpo jamas morira,
vivira eternamente en la memoria de todos...
e-mail: zarathustra4321@

            
            
Suggest correction
Creating personal tab
Creating personal tab
You can edit any tab online and save it as your Personal.

You can edit, replace or remove any tab part or add personal notes – all changes will be seen only by you.

Personal tabs can be accessed anytime from any device, even offline.
Learn more »
Give kudos to tab author, rate the tab!
1 2 3 4 5
comments
print report bad tab
guest
Wanna post a correction for this tab? Suggest correction