Oops, an error
Loading. Please wait.

Dos Trenes Chocan bass

by Pappo
75 views 1 this week
no commentswrite comment
1 2 3 4 5
3 more votes to show rating
add to favorites
×
Save as Personal and add changes to this tab that will be seen only by you. Learn more ›
×
You can save this tab as Personal to edit and correct it or add notes. All changes will be seen only by you. Learn more »
launch autoscroll
font size
0
reset
guitar tuner
edit
Autoscroll
slow
fast
+/-
esc
set tempo
stop
Esta version de cuando dos trenes chocan es de un disco en vivo
(creo que es de la presentacion de "Pappo y Amigos" en Obras del
17/06/2000).No creo que sea muy diferente a la del disco de album,
pero por si acaso lo aclaro.

G|------------------------------------------------------------
D|--------------------------------4---4---------------4---4---
A|------------------------------------------------------------
E|-0----2-2-2-2-2-2--2-0----2-2-2---2----2-0----2-2-2---2----2

G|------------------------------------------------------------
D|--------------------------------4---4---------------4---4---
A|------------------------------------------------------------
E|-0----2-2-2-2-2-2--2-0----2-2-2---2----2-0----2-2-2---2----2
                                     "Cuando
G|------------------------------------------
D|------------4---4-------------------7-----
A|--------------------------------7h9----9--
E|-0----2-2-2---2----2-0----2-2-2-----------
  dos         trenes chocan         choca mi
G|------------------------------------------------------------
D|------------4---4-------------------------------------------
A|------------------------------------------------------------
E|-0----2-2-2---2----2-0----2-2-2-2-2-2--2-0----2-2-2-2-2-2--2
mi ilusion"               "Uno iba hacia el norte..."
G|------------------------------------------------------------
D|------------------------------------------------------------
A|------------------------------------------------------------
E|-0----2-2-2-2-2-2--0-2--------------------------------------

G|------------------------------------------------------------
D|------------------------------------------------------------
A|------------------------------------------------------------
E|-0----2-2-2-2-2-2--2-0----2-2-2-2-2-2--2-0----2-2-2-2-2-2--2
              "Cuando mi            alma llora           llora
G|------------------------------------------------------------
D|------------------------------------------------------------
A|------------------------------------------------------------
E|-0----2-2-2-2-2-2--2-0----2-2-2-2-2-2--2-0----2-2-2-2-2-2--2

 de              desilusion"          "No esperaba verte..."
G|-----------------------------------------------------------------------
D|------------4---4------------------------------------------------------
A|-----------------------------------------------------------------------
E|-0----2-2-2---2----2-0----2-2-2-2-2-2--0-2-----------------------------
        (4 veces)
G|-----------------------|
D|-----------------------|
A|-7---5--7--5--7--------|
E|----------------5--6--7|
(empieza el solo de guitarra)
G|-----------------------------------------------------------------------
D|-----------------------------------------------------------------------
A|------------------------------------3~---3-3-3-3-3----3~---3-3-3-3-3---
E|-2-2-2-2-2-2-2-2----2--2-2-2-2-2-2------------------5-----------------0

G|-----------------------------------------------------------------------
D|-----------------------------------------------------------------------
A|----------------------------------3~---3~--3-3-3----3-----3------------
E|-2----2-2-2-2-2--0-2---2-2-2-2-2------------------5--------------------

G|-----------------------------------------------------------------------
D|-----------------------------------------------------------------------
A|--------------------5----5-5-5-5-5-5---7--7-7-7-7-7-7--7---------------
E|-5----5-5-5-5-5-5----------------------------------------0---0---0--0--

G|-----------------------------------------------------------------------
D|-----------------------------------------------------------------------
A|--------------------5----5-5-5-5-5-5---7--7-7-7-7-7-7--7/19------------
E|-5----5-5-5-5-5-5------------------------------------------0---0-0-0--5

G|-----------------------------------------------------------------------
D|------------------------------------------------------------------12---
A|-5---5---5-5-----5---5---5-5---------------------------------9/12------
E|--------------5---------------5--7---7---7-7--5--7---7---7-7--------10-

G|-11h12------11h12------11h12-------------------------------------------
D|--------12---------12---------12/d-------------------------------------
A|-----------------------------------------------------------------------
E|-------------------------------------5--7---7---7-7--5--7---7---7---7-7
(2:54)
G|------------------------------------------------------------
D|--------------------------------4---4---------------4---4---
A|------------------------------------------------------------
E|-0----2-2-2-2-2-2--2-0----2-2-2---2----2-0----2-2-2---2----2

G|-------------------9-11-9-----------------------------------------
D|--------------9h11--------11-9------------4---4-------------------
A|----------9-9--------------------------------------2---2---2---2--
E|-0----2-2----------------------0----2-2-2---2----2----------------
                                   "En los
G|----------------------------------------
D|----------------------------------------
A|----------------------------------------
E|-0----2-2-2-2-2-2--2-0----2-2-2-2-2-2--2
  ba...         bajos fondos         de una  casa             en
G|--------------------------------------------------------------
D|--------------------------------------------------------------
A|--------------------------------------------------------------
E|-0----2-2-2-2-2-2--2-0----2-2-2-2-2-2--2-0----2-2-2-2-2-2--0-2
alquiler"            "Bajo la manga del saco, vaya a saber"
G|------------------------------------------------------------
D|------------------------------------------------------------
A|------------------------------------------------------------
E|-0----2-2-2-2-2-2--0-2--------------------------------------
        ?Ese pocker de ases a mi lado seria incapaz de hacer trampa?
G|------------------------------------------------------------
D|------------------------------------------------------------
A|------------------------------------------------------------
E|-0----2-2-2-2-2-2--2-0----2-2-2-2-2-2--2-0----2-2-2-2-2-2--2

?Eh, demos vuelta la hoja        ¿que llevas debajo de ese esmoquin?
G|------------------------------------------------------------
D|------------4---4---------------4---4---------------4---4---
A|------------------------------------------------------------
E|-0----2-2-2---2----2-0----2-2-2---2----2-0----2-2-2---2----2

G|-----------------9------------------------------
D|------------9h11---11--9h11---------------------
A|----------9-------------------------------------
E|-0----2-2--------------------0----2-2-2-2-2-2--2

G|------------------------------------------------------------
D|------------------------------------------------------------
A|------------------------------------------------------------
E|-0----2-2-2-2-2-2--2-0----2-2-2-2-2-2--2-0----2-2-2-2-2-2--2
(3:56)
G|-------------------------------------------------------
D|------------4-4-2--------------------------------------
A|---------------------2---2---2-2-2---------------------
E|-0----2-2-2--------5----------------0----2-2-2-2-2-2--2
                                                      "Dos trenes
G|------------------------------------------------------------
D|------------------------------------------------------------
A|------------------------------------------------------------
E|-0----2-2-2-2-2-2--2-0----2-2-2-2-2-2--2-0----2-2-2-2-2-2--2
 chocan"
G|-------------------------------------------------------------
D|-----------------------------------------------------4---4---
A|-------------------------------------------------------------
E|-0----2-2-2-2-2-2--2-0----2-2-2-2-2--0--2-0----2-2-2---2----2
              "Dos trenes chocan"
G|----------------2-4----------------------------------------------
D|------------2-4-----2-4-4-------------4--4---------------4---4---
A|----------4------------------------------------------------------
E|-0----2-2------------------0----2-2-2--2----2-0----2-2-2---2----2

G|------------------------------------------| ~: vibrato
D|------------------------------------------| h: hammer on (ligado)
A|-7---5--7--5--7---------7-----------------| /: slide (arrastrar)
E|----------------5--6--7-------------------| /d: slide down

Cuando dos trenes chocan (Pappo - Yulie Ruth)

Cuando dos trenes chocan,
choca mi? mi ilusión;
uno iba hacia el norte,
otro hacia el sur.

Cuando mi alma llora,
llora de? desilusión,
yo esperaba verte,
en la estación.

En los ba? bajos fondos,
de una casa en alquiler;
bajo la manga del saco,
vaya a saber.

Ese poker de ases?
A mi lado será incapaz de hacer trampa?
Eh? demos vuelta la hoja?
¿Qué llevas bajo ese smoking??

Dos trenes chocan.

Mientras su musica se siga tocando y escuchando el carpo jamas morira,
vivira eternamente en la memoria de todos...
e-mail: zarathustra4321@

            
            
Suggest correction
Creating personal tab
Creating personal tab
You can edit any tab online and save it as your Personal.

You can edit, replace or remove any tab part or add personal notes – all changes will be seen only by you.

Personal tabs can be accessed anytime from any device, even offline.
Learn more »
Give kudos to tab author, rate the tab!
1 2 3 4 5
comments
print report bad tab
guest
Wanna post a correction for this tab? Suggest correction