Oops, an error
Loading. Please wait.

El Hombre Suburbano bass

by Pappo
191 views 1 this week
no commentswrite comment
1 2 3 4 5
3 more votes to show rating
add to favorites
×
Save as Personal and add changes to this tab that will be seen only by you. Learn more ›
×
You can save this tab as Personal to edit and correct it or add notes. All changes will be seen only by you. Learn more »
launch autoscroll
font size
0
reset
guitar tuner
edit
Autoscroll
slow
fast
+/-
esc
set tempo
stop
Aca le va este temazo del carpo de su primer disco. Es de su album de
estudio del año 1971 (para mi su mejor ?version?, además de ser
la original). Esta gran linea de bajo la tocaba David Lebon.

(esperar la intro de la guitarra y luego esto)
G|-----------------5-5-4-4-3-3------------------------------------
D|-----2---3-3-4-5-------------5-3-----------------5-5-3---2------
A|-3-----------------------------------2---3-3-4-5-----------3-5--
E|---------------------------------3------------------------------

G|-------------------5-3-2-----------------------------------------
D|-----4---5-5-6-7----------5-2------------------------------------
A|-5---------------3------------5-2-----2---3---4---5-5-5-5-5-5-5-5
E|----------------------------------3------------------------------
?Estamos en el tiempo, en que el ser humano, vive con razón de ser;
G|----------------------------------------------------------------
D|-----------------5-5-3---2-2------------------------------------
A|-----2-2-3-3-4-5-------------5-2-----2---3-3-4-5-----0---1---2--
E|-3-------------------------------3---------------3-3------------
con solo unas palabras, un caso puede resolver, ah!           pero
G|-----5-3-2------------------------------------------------------
D|-----------5-3-2-----2-2-3-3-4-4-5-5-3-3-2-2--------------------
A|-3---------------3---------------------------5-2-----2-2-3-3-4-4
E|-------------------------------------------------3-3------------
pega una trompada y tira todo; se cree el ya muy listo con su modo
G|-------------------5-3-2----------------------------------------
D|-----4-4-5-5-6-7---------5-3-2-------4-4-5-5-6-7----------------
A|-5---------------3-------------3-5---------------3-3------------
E|-----------------------------------------------------6-6-5-5-3-0
de ser, ah!?
G|--------------------------------
D|--------------------------------
A|-----2-2-3-3-4---5-5-5-5-5-5-5-5
E|-3-------------3----------------
?Un hombre sin historia, sin tiempo y sin memoria, puede reaccionar así;
G|----------------------------------------------------------------
D|-----------------5-5-3---2--------------------------------------
A|-----2---3-3-4-5-------------5-2-----2---3---4-5-----0---1---2-2
E|-3-------------------------------3---------------3-3------------
pero no se da cuenta, su personalidad en venta esta, ah!    pero
G|-----------------5-5-3-3-2------------------------------------
D|-----2---3-3-4-5-------------5-2-5-5-3-3-2--------------------
A|-3-----------------------------------------5-2-----2---3---4--
E|-----------------------------------------------3-3------------
el hombre suburbano sigue su rutina, sin darse cuenta que, su vida
G|-------------------5---3-2-2------------------------------------
D|-----4---5-5-6-7-------------5-2-----4---5-5-6-7----------------
A|-5---------------3---------------5---------------3-3------------
E|-----------------------------------------------------6---5-5---0
terminara, yes!?
G|------------------------------
D|-----------------------7---7--
A|-----2-2-3-3-4---5-5-5--------
E|-3-3-----------3-------------5
(empieza el solo del carpo)
G|-----------------5-3-2------------------------------------------
D|-----2---3---4---------5-3-2---------------------5-5-3-3-2------
A|-3---------------------------5-2-----2---3---4-5-------------5-2
E|---------------------------------3-3----------------------------

G|-----------------5-5-3-3-2-2----------------------------------------
D|-----4-4-5-5-6-7-------------5-2-5-5-4---3---2---1------------------
A|-5-5-------------------------------------------------5-5-5-5-5-5-5-4
E|--------------------------------------------------------------------

G|--------------------------------------------------------------
D|-------------------2-2-3---4-5-----------------5-5-3-3-2-2----
A|-3-3---1-3-0-1-3-3-----------------2---3-3-4-5-------------5-2
E|-------------------------------3-3----------------------------

G|-----------------5-5-3---2------------------------------------------
D|-----4---5-5-6-7-----------5-2-3-5-5-4---3---2---1------------------
A|-5-5-------------------------------------------------5-5-5-5-5-5-5-5
E|--------------------------------------------------------------------
?Un hombre sin historia, sin tiempo sin memoria, puede reaccionar así;
G|----------------------------------------------------------------
D|-----------------5-5-3---2--------------------------------------
A|-----2---3-3-4-5-------------5-2-----2-2-3-3-4-5-----0---1---2-2
E|-3-------------------------------3-3-------------3-3------------
pero no se da cuenta, su personalidad en venta esta, ah!    pero
G|----5554443---------------------------------------------------
D|-----------52------2---3-3-4-4-5-5-3---2-2--------------------
A|-3-----------3-3---------------------------5-2-----2-2-3-3-4-4
E|-----------------------------------------------3-3------------
el hombre suburbano sigue su rutina, sin darse cuenta que, su vida
G|----------------------------------------------------------------
D|-----4-4-5-5-6-7---------------------4-4-5-5-6-7----------------
A|-5---------------3-3-------------5-5-------------3--------------
E|---------------------6---5-5-3----------------------------------
terminara?                       (Final)
G|------------------------------|---------------------------------|
D|------------------------------|-3-------------------------------|
A|------------------------------|-5-------------------------------|
E|------------------------------|-3-------------------------------|

El hombre suburbano (Pappo)

Estamos en el tiempo,
en que el ser humano,
vive con razón de ser;
con sólo unas palabras,
un caso puede resolver, ah!.

Pero pega una trompada
y tira todo;
se cree ya muy listo
con su modo de ser, ah!.

Un hombre sin historia,
sin tiempo y sin memoria,
puede reaccionar así;
pero no se da cuenta,
su personalidad en venta está, ah!.

El hombre suburbano
sigue su rutina,
sin darse cuenta que,
su vida terminará, yes!

Un hombre sin historia,
sin tiempo y sin memoria,
puede reaccionar así;
pero no se da cuenta,
su personalidad en venta está, ah!.

El hombre suburbano
sigue su rutina,
sin darse cuenta que,
su vida terminará.

Mientras su musica se siga tocando y escuchando el carpo jamas morira,
vivira eternamente en la memoria de todos...
e-mail: zarathustra4321@

            
            
Suggest correction
Creating personal tab
Creating personal tab
You can edit any tab online and save it as your Personal.

You can edit, replace or remove any tab part or add personal notes – all changes will be seen only by you.

Personal tabs can be accessed anytime from any device, even offline.
Learn more »
Give kudos to tab author, rate the tab!
1 2 3 4 5
comments
print report bad tab
guest
Wanna post a correction for this tab? Suggest correction